PrimaNota.ru - самый крупный в мире бесплатный архив песенных текстов, аккордов, табулатур и нот


Dreadnaut - Valentine - таба, видео

Регистрация Запомнить меня
Войти через:  Facebook Google Twitter Vk Yandex Mail.ru

Dreadnaut - Valentine - таба, видео

Печатать
Просмотров: 111
----------------------------------------------------------------------------
                             Valentine - Dreadnaut
----------------------------------------------------------------------------
Tabbed by:Moose


Tuning:Drop C
Intro 8x
e|--------------------------------------------------------|
B|--------------------------------------------------------|
G|--------------------------------------------------------|
D|--------------------------------------------------------|
A|--------1-----------3-------------1-------3------1------|
E|0-0-0-0--3-1-0-0-0-0--5-3-0-0-0-0---3-1-0--5-3-0--3-1-0-|

Verse 4x
e|-------------------------------------------------------------|
B|-------------------------------------------------------------|
G|-------------------------------------------------------------|
D|-------------------------------------------------------------|
A|--------1---3----------3---5----------1---3--3-------1-------|
E|0-0-0-0---3-3--0-0-0-0---5-5--0-0-0-0---3-3----5-3-0---3-1-0-|
  . . . .        . . . .        . . . .
Chorus 2x
e|------------------------------------------|
B|------------------------------------------|
G|------------------------------------------|
D|---------3--3--3-33------------5--5--5-55-|
A|0--0--00-1--1--1-11-3--3--3-33-3--3--3-33-|
E|0--0--00------------3--3--3-33------------|

Intro 4x
verse 4x
chorus 2x

 chords change during the 2nd chorus  2x
e|----------------------------------------|
B|----------------------------------------|
G|----------------------------------------|
D|7--7-7-77-3--3-3-33-----------5--5-5-55-|
A|5--5-5-55-1--1-1-11-3--3-3-33-3--3-3-33-|
E|--------------------3--3-3-33-----------|

Cool heavy Riff 4x
e|-----------------------------------------------------------------------|
B|-----------------------------------------------------------------------|
G|-----------------------------------------------------------------------|
D|0----------------------------------------------------------------------|
A|0----------------------------------------------------------------------|
E|0-let ring-0-0-0-0-000-0-0-0-0-000-0-0-0-0-000-0-0-0-13-12-0-13-0-1313-|
             . . . . ... . . . . ... . . . . ... . . .
Same riff but open strings 4x

These are those weired choreds at the end of the riff
e|-----------------|
B|-----------------|
G|-----------------|
D|15\14---15=1515--|
A|15\14---15-1515--|
E|13\12-0-13-1313--|

Chorus 6x
Verse 4x

WEll that my version. Not sure if it's right But it's close
Enjoy!!!!


| /  slide up
| \  slide down
| h  hammer-on
| p  pull-off
| ~  vibrato
| +  harmonic
| . Mute note
Добавлено: 11.07.2012
Другие материалы по этой песне:
  • Аккорды и текст

Страница создана 11.07.2012
http://primanota.ru/dreadnaut/valentine-chords.htm
Привет, Гость.
Предлагаем пройти революционный курс по гитаре.
Подарок от PrimaNota.Ru, забирай!