PrimaNota.ru - самый крупный в мире бесплатный архив песенных текстов, аккордов, табулатур и нот


Dreadnaut - Rise - таба, видео

Регистрация Запомнить меня
Войти через:  Facebook Google Twitter Vk Yandex Mail.ru

Dreadnaut - Rise - таба, видео

Печатать
Просмотров: 122
Уроки эстрадного вокала в Санкт-Петербурге
-------------------------------------------------------------------------------
                             RISE - Dreadnaut
-------------------------------------------------------------------------------
Tabbed by:Will Aubut
Email:aubut101@hotmail.com

Tuning:drop c(CGCFAd)

. = palm mute
* = pinchy
b = bend
h = hammer on
" = trem pick

Enter with nice pick slide

intro riff x7
e|-------------------------------------------------------------------------|
B|-------------------------------------------------------------------------|
G|-------------------------------------------------------------------------|
D|-------------------------------------------------------------------------|
A|-------------------------------------------------------------------------|
E|-0-000000-3h5-0000-0-0000-0-00-3h5-00-5h6-00-----------------------------|
     ......     ....   ....   ..     ..     ..
end of intro x1
e|-------------------------------------------------------------------------|
B|-------------------------------------------------------------------------|
G|-------------------------------------------------------------------------|
D|-------------------------------------------------------------------------|
A|----------------0--------------------------------------------------------|
E|-0-000000-3h5-000---ting-ting-ting---------------------------------------|
     ......     ...

Verse x2
e|-------------------------------------------------------------------------|
B|-------------------------------------------------------------------------|
G|-------------------------------------------------------------------------|
D|-------------------------------------------------------------------------|
A|-------------------------------------------------------------------------|
E|-0-000000-3h5-0000-0-0000-0-00-3h5-00-5h6-00-----------------------------|
     ......     ....   ....   ..     ..     ..
e|-------------------------------------------------------------------------|
B|-------------------------------------------------------------------------|
G|----------------------7-7-7-7-5-8-8--------------------------------------|
D|----------------------7-7-7-7-5-8-8--------------------------------------|
A|----------------------5-5-5-5-3-6-6--------------------------------------|
E|-0-000000-3h5-0000-0-----------------------------------------------------|
     ......     ....  
e|-------------------------------------------------------------------------|
B|-------------------------------------------------------------------------|
G|-------------------------------------------------------------------------|
D|-------------------------------------------------------------------------|
A|-------------------------------------------------------------------------|
E|-0-000000-3h5-0000-0-0000-0-00-3h5-00-5h6-00-----------------------------|
     ......     ....   ....   ..     ..     ..
e|-------------------------------------------------------------------------|
B|-------------------------------------------------------------------------|
G|-------------------------------------------------------------------------|
D|-------------------------------------------------------------------------|
A|-------------------------------------------------------------------------|
E|-0-000000-3h5-0000-0-0000-0-00-3h5-00-5h6-00-----------------------------|
     ......     ....   ....   ..     ..     ..

Chorus x4
e|-------------------------------------------------------------------------|
B|-------------------------------------------------------------------------|
G|-------------------------------------------------------------------------|
D|-------------------------------------------------------------------------|
A|---5--5-5----5--5-5----5--5-5----5--5-5----------------------------------|
E|-00-00-0---33-33-3---55-55-5---55-55-5-----------------------------------|


Verse x2

chorus x4

Bridge x3
e|-------------------------------------------------------------------------|
B|-------------------------------------------------------------------------|
G|-------------------------------------------------------------------------|
D|--------------------------------------------------------bbbbbbbb---------|
A|-5"--2"--7"--0"--5"--2"--7"--0"--5"--2"--7"--0"---55555555555555---------|
E|-------------------------------------------------------------------------|
   .............................................    (pinch and bend)


Breakdown part 1 (slight Palm muting)x4
e|-------------------------------------------------------------------------|
B|-------------------------------------------------------------------------|
G|-------------------------------------------------------------------------|
D|---*------*------*------*------*------*------*---------------------------|
A|---5h6----5h6----5h6----5h6----5h6----5h6----5h6-------------------------|
E|-00---0000---0000---0000---0000---0000---0000----0050050056--------------|
   ..   ....   ....   ....   ....   ....   ....
Breakdown part 2 x4
e|-------------------------------------------------------------------------|
B|-------------------------------------------------------------------------|
G|-------------------------------------------------------------------------|
D|---*------*------*-------------------------------------------------------|
A|-0-5h6-00-5h6-00-5h6-----------------------------------------------------|
E|-0-----00-----00-----0-50050056------------------------------------------|

pause after breakdown
e|-------------------------------------------------------------------------|
B|-------------------------------------------------------------------------|
G|-------------------------------------------------------------------------|
D|-------------------------------------------------------------------------|
A|---5--5-5----------------------------------------------------------------|
E|-55-55-5-----------------------------------------------------------------|

Chorus x4

Bridge x2

final verse x7
e|-------------------------------------------------------------------------|
B|-------------------------------------------------------------------------|
G|-------------------------------------------------------------------------|
D|-------------------------------------------------------------------------|
A|-------------------------------------------------------------------------|
E|-0-000000-3h5-0000-0-0000-0-00-3h5-00-5h6-00-----------------------------|
     ......     ....   ....   ..     ..     ..
ending x 1
e|-------------------------------------------------------------------------|
B|-------------------------------------------------------------------------|
G|----------------------7-7-7-7-5-8-8--------------------------------------|
D|----------------------7-7-7-7-5-8-8--------------------------------------|
A|----------------------5-5-5-5-3-6-6--------------------------------------|
E|-0-000000-3h5-0000-0-----------------------------------------------------|
     ......     ....  







| /  slide up
| \  slide down
| h  hammer-on
| p  pull-off
| ~  vibrato
| +  harmonic
| x  Mute note
Добавлено: 01.07.2012
Другие материалы по этой песне:
  • Аккорды и текст

Страница создана 01.07.2012
http://primanota.ru/dreadnaut/rise-chords.htm
Привет, Гость.
Предлагаем пройти революционный курс по гитаре.
Подарок от PrimaNota.Ru, забирай!