PrimaNota.ru - самый крупный в мире бесплатный архив песенных текстов, аккордов, табулатур и нот


Dreadnaut - Have You Ever - таба, видео

Регистрация Запомнить меня
Войти через:  Facebook Google Twitter Vk Yandex Mail.ru

Dreadnaut - Have You Ever - таба, видео

Печатать
Просмотров: 109
   
   Tabbed by: Keegan M.
   E-mail: kmonias_25@live.com
   
   Dreadnaut - Have You Ever?
   A New Design (2005)


  Riff 1
e|---------------------------------------|
B|---------------------------------------|
G|---------------------------------------|
D|---------------------------------------|
A|---------------------------------------|
D|-0h1-0h1-0--1p0-1p0-3p1p0--------------|

e|---------------------------------------|
B|---------------------------------------|
G|---------------------------------------|
D|---------------------------------------|
A|---------------------------------------|
D|-0h1-0h1-0--1p0-1p0-3p1p0--------------|

e|---------------------------------------|
B|---------------------------------------|
G|---------------------------------------|
D|---------------------------------------|
A|---------------------------------------|
D|-0h1-0h1-0--1p0-1p0-3p1p0--------------|

e|---------------------------------------|
B|---------------------------------------|
G|---------------------------------------|
D|---------------------------------------|
A|--6666666688888888---------------------|
D|--6666666688888888---------------------|

  Riff 2
e|---------------------------------------|
B|---------------------------------------|
G|---------------------------------------|
D|---------------------------------------|
A|--000-000-000-000-666-666-666-666------|
D|--000-000-000-000-666-666-666-666------|
    *** *** *** *** *** *** *** ***
e|---------------------------------------|
B|---------------------------------------|
G|---------------------------------------|
D|---------------------------------------|
A|--000-000-000-000-666-666-666-666------|
D|--000-000-000-000-666-666-666-666------|
    *** *** *** *** *** *** *** ***
e|---------------------------------------|
B|---------------------------------------|
G|---------------------------------------|
D|---------------------------------------|
A|--000-000-000-000-666-666-666-666------|
D|--000-000-000-000-666-666-666-666------|
    *** *** *** *** *** *** *** ***
e|---------------------------------------|
B|---------------------------------------|
G|---------------------------------------|
D|---------------------------------------|
A|--000-000-000-000-666-666-666-666------|
D|--000-000-000-000-666-666-666-666------|
    *** *** *** *** *** *** *** ***
e|---------------------------------------|
B|---------------------------------------|
G|---------------------------------------|
D|---------------------------------------|
A|--000-000-000-000-666-666-666-666------|
D|--000-000-000-000-666-666-666-666------|
    *** *** *** *** *** *** *** ***
e|---------------------------------------|
B|---------------------------------------|
G|---------------------------------------|
D|---------------------------------------|
A|--000-000-000-000-666-666-666-666------|
D|--000-000-000-000-666-666-666-666------|
    *** *** *** *** *** *** *** ***
e|---------------------------------------|
B|---------------------------------------|
G|---------------------------------------|
D|---------------------------------------|
A|---0(0)------6666666688888888----------|
D|---0(0)------6666666688888888----------|

  Riff 3
e|---------------------------------------|
B|---------------------------------------|
G|---------------------------------------|
D|---------------------------------------| *I don't know the  
A|--0-0-0--6-6-6--3-3-3--8-8-8-----------|  strumming patterns
D|--0-0-0--6-6-6--3-3-3--8-8-8-----------|

e|---------------------------------------|
B|---------------------------------------|
G|---------------------------------------|
D|---------------------------------------|  
A|--0-0-0--6-6-6--3-3-3--8-8-8-----------|
D|--0-0-0--6-6-6--3-3-3--8-8-8-----------|

e|---------------------------------------|
B|---------------------------------------|
G|---------------------------------------|
D|---------------------------------------|  
A|--0-0-0--6-6-6--3-3-3--8-8-8-----------|
D|--0-0-0--6-6-6--3-3-3--8-8-8-----------|

e|---------------------------------------|
B|---------------------------------------|
G|---------------------------------------|
D|---------------------------------------|  
A|--0-0-0--6-6-6--3-3-3--8-8-8-----------|
D|--0-0-0--6-6-6--3-3-3--8-8-8-----------|

  Riff 4
e|---------------------------------------|
B|---------------------------------------|
G|---------------------------------------|
D|---------------------------------------|
A|-000-000-000-000-000-000-000-000-------|
D|-000-000-000-000-000-000-000-000-------|
   *** *** *** *** *** *** *** ***
e|---------------------------------------|
B|---------------------------------------|
G|---------------------------------------|
D|---------------------------------------|
A|-000-000-000-000-000-000-000-000-------|
D|-000-000-000-000-000-000-000-000-------|
   *** *** *** *** *** *** *** ***
e|---------------------------------------|
B|---------------------------------------|
G|---------------------------------------|
D|---------------------------------------|
A|-000-000-000-000-000-000-000-000-------|
D|-000-000-000-000-000-000-000-000-------|
   *** *** *** *** *** *** *** ***
e|---------------------------------------|
B|---------------------------------------|
G|---------------------------------------|
D|---------------------------------------|
A|-000-000-000-000-000-000-666-666-------|
D|-000-000-000-000-000-000-666-666-------|
   *** *** *** *** *** *** *** ***
e|---------------------------------------|
B|---------------------------------------|
G|---------------------------------------|
D|---------------------------------------|
A|-000-000-000-000-000-000-000-000-------|
D|-000-000-000-000-000-000-000-000-------|
   *** *** *** *** *** *** *** ***
e|---------------------------------------|
B|---------------------------------------|
G|---------------------------------------|
D|---------------------------------------|
A|-000-000-000-000-000-000-666-666-------|
D|-000-000-000-000-000-000-666-666-------|
   *** *** *** *** *** *** *** ***
e|---------------------------------------|
B|---------------------------------------|
G|---------------------------------------|
D|---------------------------------------|
A|-000-000-000-000-000-000-000-000-------|
D|-000-000-000-000-000-000-000-000-------|
   *** *** *** *** *** *** *** ***
e|---------------------------------------|
B|---------------------------------------|
G|---------------------------------------|
D|---------------------------------------|
A|-000-000-000-000-000-000-666-666-------|
D|-000-000-000-000-000-000-666-666-------|
   *** *** *** *** *** *** *** ***
e|---------------------------------------|
B|---------------------------------------|
G|---------------------------------------|
D|---------------------------------------|
A|-000-000-000-000-000-000-000-000-------|
D|-000-000-000-000-000-000-000-000-------|
   *** *** *** *** *** *** *** ***
e|---------------------------------------|
B|---------------------------------------|
G|---------------------------------------|
D|---------------------------------------|
A|-000-000-000-000-000-000-666-666-------|
D|-000-000-000-000-000-000-666-666-------|
   *** *** *** *** *** *** *** ***
Добавлено: 12.07.2012
Другие материалы по этой песне:
  • Аккорды и текст

Страница создана 12.07.2012
http://primanota.ru/dreadnaut/have-you-ever-chords.htm
Привет, Гость.
Предлагаем пройти революционный курс по гитаре.
Подарок от PrimaNota.Ru, забирай!