PrimaNota.ru - самый крупный в мире бесплатный архив песенных текстов, аккордов, табулатур и нот


Dreadnaut - Breathe - таба, видео

Регистрация Запомнить меня
Войти через:  Facebook Google Twitter Vk Yandex Mail.ru

Dreadnaut - Breathe - таба, видео

Печатать
Просмотров: 119
----------------------------------------------------------------------------
                             Breathe - Dreadnaut
----------------------------------------------------------------------------
Tabbed by: Jonathan Brewster
Email: brewsky_jsb@hotmail.com

Tuning:This Tab Is For Drop D, But I Thinks It's Played In Drop C.
For Drop C Tuning Just Move 2 Frets Down The Neck.

        Intro/Chorus/Outro
e|-------------------------------|
B|-------------------------------|
G|----------------------5-5------|
D|-7-7-7\0--0--0-3-3-3--5-5--5-5-|
A|-7-7-7\0--0--0-3-3-3--3-3--5-5-|
D|-7-7-7\0--0--0-3-3-3-------5-5-|

                             Verse
e|-----------------------------------------------------------|
B|-----------------------------------------------------------|
G|-----------------------------------------------------------|
D|-7-7-7--7--7/10-10-10---10--10-10-3-3--3--3/5-5-5--x-5-5-5-|
A|-7-7-7--7--7/10-10-10---10--10-10-3-3--3--3/5-5-5--x-5-5-5-|
D|-7-7-7--7--7/10-10-10---10--10-10-3-3--3--3/5-5-5--x-5-5-5-|

           Breakdown
   x1         x5        x1
e|---|----------------|----|
B|---|----------------|----|
G|---|----------------|----|Rythym Guitar
D|-7-|-x-x-3----x-x-7-|-10-|
A|-7-|-x-x-3----x-x-7-|-10-|
E|-7-|-x-x-3----x-x-7-|-10-|

e|------------------------------------|
B|------------------------------------|
G|------------------------------------|Lead Guitar
D|-----------9-9-7-7-7--------9-9-7-7-|4x w/  P.M.
A|-7-7-10-10-----------7-10-7---------|3x w/o P.M.
E|------------------------------------|

Last Note
e|---|
B|---|
G|---|
D|-7-|
A|-7-|
E|-7-|

Figure Out The Order Yourself.

| /  slide up
| \  slide down
| x  Mute note
============================================================================
www.dreadnaut.com
www.myspace.com/dreadnaut
Добавлено: 14.03.2012
Другие материалы по этой песне:

Страница создана 14.03.2012
http://primanota.ru/dreadnaut/breathe-chords.htm
Привет, Гость.
Предлагаем пройти революционный курс по гитаре.
Подарок от PrimaNota.Ru, забирай!