PrimaNota.ru - самый крупный в мире бесплатный архив песенных текстов, аккордов, табулатур и нот


Drawing Mountains - Pb - таба, видео

Регистрация Запомнить меня
Войти через:  Facebook Google Twitter Vk Yandex Mail.ru

Drawing Mountains - Pb - таба, видео

Печатать
Просмотров: 98
Tabbed By: Alex Boundy
Great, Local Michigan band Drawing Mountains
8th track off of their debut full length "Sequential Patterns"
BUY HERE!: http://drawingmountains.bandcamp.com/
Questions? Email me: alexskaterb@yahoo.com

x = mute w/ hand (to beat)
/ = slide
h = hammer-on
p = pull-off


Intro x4 (0:00-0:50)
e  |---x---------------------------------------------------------------------|
B  |---x---12121212121212121212121212121212-12121212121212121212121212121212-|
G :|---x---12121212121212121212121212121212-12121212121212121212121212121212-|
D  |---x---14141414141414141414141414141414-14141414141414141414141414141414-|
A  |---x---12121212121212121212121212121212-12121212121212121212121212121212-|
E  |---x---------------------------------------------------------------------|

e----------------------------------------------------------------------------|
B-7777777777777777-7777777777777777-7-6-5-5555555555555555-5555555555555555--|
G-7777777777777777-7777777777777777-7-6-5-5555555555555555-5555555555555555--|
D-9999999999999999-9999999999999999-9-8-7-7777777777777777-7777777777777777--|
A-7777777777777777-7777777777777777-7-6-5-5555555555555555-5555555555555555--|
E----------------------------------------------------------------------------|

e--------|
B---5/6--|
G---5/6--|:
D---7/8--|
A---5/6--|
E--------|

Breakdown (0:51-1:44) [i know the patterns off, listen to it and get it]
e----------------------------------------------------------------15----------|
B--------------------------------------------------------------11------------|
G-12-12-121212-121212-12-///---7-7-777-777-7-----12----------12-------7------|
D-13-13-131313-131313-13-///---8-8-888-888-8-----13--------13---------8------|
A-11-11-111111-111111-11-///---6-6-666-666-6-----11--/quick rake\-----6------|
E----------------------------------------------------------------------------|

Repeat Intro(1:44-Funky Bass Riff)

Intro with alternate strumming and odd time signature(between A minor 9 and D major 9)...

Funky Bass Riff(2:42-3:09)

Interlude/Bridge

e------8--12/-----------------------------------------5555-5555---------------|
B----10------------8--10/---9h10p9h10p9h10p9h10p-5555-5555-5555---------------|
G--9-------------9-------------------------------5555-5555-5555---------------|
D--------------9---------------------------------7777-7777-7777---------------|
A------------------------------------------------5555-5555-5555---------------|
E-----------------------------------------------------------------------------|

Order:
Intro
Breakdown
Intro
FBR
Interlude/Bridge
Intro(Outro)



Lyrics:
I was just sitting on the couch, oh no
I was just sitting on the couch, oh no
I was just sitting on the couch
Our critique began as all critiques begin, with doubt
[unclear talking under FBR]...Doubt was our narrative and art was our goal.
A rejection of the old and a welcoming of change and, given the right circumstances, a 
new reality is just as likely as an old one (god damnit!)
Добавлено: 02.06.2012
Другие материалы по этой песне:
  • Аккорды и текст

Страница создана 02.06.2012
http://primanota.ru/drawing-mountains/pb-chords.htm
Привет, Гость.
Предлагаем пройти революционный курс по гитаре.
Подарок от PrimaNota.Ru, забирай!