PrimaNota.ru - самый крупный в мире бесплатный архив песенных текстов, аккордов, табулатур и нот


Drakma - 300 - таба, видео

Регистрация Запомнить меня
Войти через:  Facebook Google Twitter Vk Yandex Mail.ru

Drakma - 300 - таба, видео

Печатать
Просмотров: 103
Artist: Drakma
Song Title: 300
Album: EP se~ales
Tabbed By: Macelon [ztacker ]

Tuning: Normal


|----^---------------------------------------------|
|---14---------------------------------------------|
|--------------------------------------------------|
|-------00000-000-000---333000111333---------------|
|-------00000-000-000---333000111333---------------|
|-------00000-000-000---333000111333---------------|
        ***** *** ***   ************

|--------------------|----------------------|
|--------------------|----------------------|
|------14----12---x2-|---------14-12-10-----|
|---00--x-00--x------|-333111---x--x--x-----|
|---00-12-00-10------|-333111--12-10--8-----|
|---00----00---------|-333111---------------|
    **    **           ******

                          (tremolo)
-----------------------|-----------------|
-----------------------|-----------------|
---------14-12-16---x2-|--13-12-10-12--x8|
-333111---x--x--x------|-----------------|
-333111--12-10-14------|-----------------|
-333111----------------|-----------------|
 ******

|---------------------------------------------------|
|---------------------------------------------------|
|----11-11-11-11----9999----7777--------------------|
|-00-x--x--x--x--00-xxxx-00-xxxx--(tremolo)---------|
|-00-9--9--9--9--00-7777-00-5555-----------6-5-4-2--|
|-00-------------00------00-------------------------|
  **             **      **

parte faltante (1:38 - 2:00)

|-----------------------------------------------------|
|---------------------------------------------^-------|
|-999-77-11-11---11-11-11-99-13-13--11-11-11-13/------|   x2
|-777-55-9--9-x2-11-11-11-99-13-13--11-11-11-13/------|
|-777-55-9--9----9--9--9--77-11-11--9--9--9--11/------|
|-----------------------------------------------------|


|-----------|--------------------------------|
|-----------|---------------(tremolo)--------|
|-----------|----------------9-7-------------|
|-00-0000-0-|--00-000-000-0----------x4------|
|-00-0000-0-|--00-000-000-0------------------|
|-00-0000-0-|--00-000-000-0------------------|
  ** **** *    ** *** *** *

---------------------------------------------|
-----------^---------------------------------|
----------14-12------------------------------|
--0-00-00-------x4--0~-1~--------------------|
--0-00-00-----------0~-1~--------------------|
--0-00-00-----------0~-1~--------------------|


Es mi primera tab y hallo en ella muchos errores es solo para que se den una idea y
de esta irla mejorando, por su cuenta o mandandome lo que crean conveniente a
mac_seminol02@hotmail.com
Apoyando a drakma!!


http://www.myspace.com/drakma
http://www.purevolume.com/drakma
Добавлено: 23.02.2012
Другие материалы по этой песне:

Страница создана 23.02.2012
http://primanota.ru/drakma/300-chords.htm
Привет, Гость.
Предлагаем пройти революционный курс по гитаре.
Подарок от PrimaNota.Ru, забирай!