PrimaNota.ru - самый крупный в мире бесплатный архив песенных текстов, аккордов, табулатур и нот


Drake - Video Girl - таба, видео

Регистрация Запомнить меня
Войти через:  Facebook Google Twitter Vk Yandex Mail.ru

Drake - Video Girl - таба, видео

Печатать
Просмотров: 187
yo guys, this song is cool and i felt like learning it by ear so im sorry if its off 
bit.. im new to this and.... it's my first tab so don't hate! :D--> Amazing song, 
surprisingly simple -- GOOD FOR BEGINNERS! Have fun jamming to
this concentrate on the rhythm and try and make it flow...
peace out - Ryan.R ;)



Video Girl - Drake

NO CAP
Standard tuning
     when playing this song add like a funky swing to it... check the song out on 
YouTube and listen to the swing.. :)

x = mute note
. = hold the note
/ = slide up
\ = slide down
h = hammer
p = point
                    this is played in 4/4

First guitarist
    1  2  3  4  1  2  3  4  1  2  3  4  1  2  3  4  1  2  3  4  1  2  3  4
    X  X  X  X  X  X  X  X  X  X  X  X  X  X  X  X  X  X  X  X  X  X  X  X
e|-------------|--------|---------|---------|---------|--this---|---------|
B|-------------|--------|---------|---------|---------|-repeats-|---------|
G|----9-----7--|6....6--|5-----9--|--7--6....6---5----|-through-|---------|
D|----9-----7--|6....6--|4-----9--|--7--6....6---4----|---the---|---------|
A|-------------|--------|---------|---------|---------|--whole--|---------|
E|--9-----7----|5...5---|4--9-----7-----5...5----4----|---song--|---------|

    but if you wanna change it up try this :D

 X  X  X  X  X  X  X  X  X  X  X  X  X  X  X  X  X  X  X  X  X  X  X  X  X
e|------------|---------|---------|---------|---------|---------|---------|
B|------------|---------|---------|---------|---------|---------|---------|
G|-----9-----7|----6----|5-----9--|--7------6----5----|---------|---------|
D|-----9-----7|----6----|4-----9--|--7------6----4----|---------|---------|
A|------------|---------|---------|---------|---------|---------|---------|
E|--9-----7---|-5-----4-|---9-----7-----5---|-4-------|---------|---------|


X  X  X  X  X  X  X  X  X  X  X  X  X  X  X  X  X  X  X  X  X  X  X  X  X
e|------------|---------|---------|---------|---------|---------|---------|
B|-----9-----7|---------|5-----9--|--7------|----5----|---------|---------|
G|-----9-----7|----6----|5-----9--|--7------6----5----|---------|---------|
D|-----9-----7|----6----|4-----9--|--7------6----4----|---------|---------|
A|------------|---------|---------|---------|---------|---------|---------|
E|--9-----7---|-5-----4-|---9-----7-----5---|-4-------|---------|---------|

 X  X  X  X  X  X  X  X  X  X  X  X  X  X  X  X  X  X  X  X  X  X  X  X  X
e|------------|---------|---------|---------|---------|---------|---------|
B|------------|---------|---------|---------|---------|---------|---------|
G|----99----77|---66--5.|.----99--|-77----66|-5-------|---------|---------|
D|---9--9--7--7--6--6-4.|.---9--9-|7--7--6--6-4-------|---------|---------|
A|------------|---------|---------|---------|---------|---------|---------|
E|--9----97---|75----54.|.--9----97----75---|54-------|---------|---------|


X  X  X  X  X  X  X  X  X  X  X  X  X  X  X  X  X  X  X  X  X  X  X  X  X
e|-----------|---------|---------|---------|---------|---------|---------|
B|-----------|---------|---------|---------|---------|---------|---------|
G|---9x9---7x7---6x6---5x5---9x9-|-7x7---6x6---5x5---|---------|---------|
D|---9x9---7x7---6x6---4x4---9x9-|-7x7---6x6---4x4---|---------|---------|
A|-----------|---------|---------|---------|---------|---------|---------|
E|-9-----7---|-5-----4-|---9-----7-----5---|-4-------|---------|---------|
     i just gave you 4 other ideas to use.....
sooo if you find that repeating the whole song over and over again is boring ...switch 
it up ;)



now the second guitarists part intro...

(where it says 78 its a p7h8 but i couldnt write the h due to timings)
   1  2  3  4  1  2  3  4  1  2  3  4  1  2  3  4  1  2  3  4  1  2  3  4
   X  X  X  X  X  X  X  X  X  X  X  X  X  X  X  X  X  X  X  X  X  X  X  X
e|----9\7----8-|------9-7|---------|---------|---------|---------|---------|
B|----9\7---7--|7h9p78---|--4/5-7-9|7--------9-7-------|---------|---------|
G|-------------|---------|---------|---------|---------|---------|---------|
D|-------------|---------|---------|---------|---------|---------|---------|
A|-------------|---------|---------|---------|---------|---------|---------|
E|-------------|---------|---------|---------|---------|---------|---------|

 soorry if the timings off i had to make it slightly off time to add the "h" and "P"

now both of them together
(first guitarist)
 1  2  3  4  1  2  3  4  1  2  3  4  1  2  3  4  1  2  3  4  1  2  3  4
    X  X  X  X  X  X  X  X  X  X  X  X  X  X  X  X  X  X  X  X  X  X  X  X
e|-------------|--------|---------|---------|---------|--this---|---------|
B|-------------|--------|---------|---------|---------|-repeats-|---------|
G|----9-----7--|6....6--|5-----9--|--7--6....6---5----|-through-|---------|
D|----9-----7--|6....6--|4-----9--|--7--6....6---4----|---the---|---------|
A|-------------|--------|---------|---------|---------|--whole--|---------|
E|--9-----7----|5...5---|4--9-----7-----5...5----4----|---song--|---------|

                                                       (second guitarist)
e|----9\7----8-|------9-7|---------|---------|---------|---------|---------|
B|----9\7---7--|7h9p78---|--4/5-7-9|7--------9-7-------|---------|---------|
G|-------------|---------|---------|---------|---------|---------|---------|
D|-------------|---------|---------|---------|---------|---------|---------|
A|-------------|---------|---------|---------|---------|---------|---------|
E|-------------|---------|---------|---------|---------|---------|---------|
after the second guitarist has finished that ^^^


   1  2  3  4  1  2  3  4    the second guitars repeats this through
e|---------7h9-|------7h9|
B|------7h9----|---7h9---|       the rest of the one but once again if
G|-------------|---------|       it gets boring miiiixxx ittt uppp :D
D|-------------|---------|
A|-------------|---------|
E|-------------|---------|


thank you for going through  this tab guys Keep at it you will get it,its fairly basic :)

enjoy
by .,.,,.Ryan Raymond,.,., :D
Добавлено: 04.05.2012
Другие материалы по этой песне:
  • Аккорды и текст

Страница создана 04.05.2012
http://primanota.ru/drake/video-girl-chords.htm
Привет, Гость.
Предлагаем пройти революционный курс по гитаре.
Подарок от PrimaNota.Ru, забирай!