PrimaNota.ru - самый крупный в мире бесплатный архив песенных текстов, аккордов, табулатур и нот


Drake Bell - Out There - аккорды и текст, видео

Регистрация Запомнить меня
Войти через:  Facebook Google Twitter Vk Yandex Mail.ru

Drake Bell - Out There - аккорды и текст, видео

Печатать
Просмотров: 126
Out There
Drake Bell
Out There by Drake Bell
ALbum: Nashville Sessions

Tabbed by alex_72886


CHORDS USED:

     E    E/D   A/C#  Am/C   D    D/C   G/B  Gm/Bb   Bb    Dm    C#
e/---0-----0-----x-----0-----2-----2-----3-----3-----1-----5-----4-----|
B/---0-----0-----2-----1-----3-----3-----3-----3-----3-----6-----6-----|
G/---1-----1-----2-----2-----2-----2-----0-----3-----3-----7-----6-----|
D/---2-----0-----2-----2-----0-----x-----0-----x-----3-----7-----6-----|
A/---2-----x-----4-----3-----x-----3-----2-----1-----1-----5-----4-----|
E/---0-----x-----x-----x-----x-----x-----x-----x-----x-----x-----x-----|


     Ab   Eb5   Gsus4   G     A    A/G   D/F#  Dm/F 
e/---4-----x-----3-----3-----0-----x-----2-----1-----|
B/---4-----x-----3-----3-----2-----2-----3-----3-----|
G/---5-----8-----5-----4-----2-----2-----2-----2-----|
D/---6-----8-----5-----5-----2-----2-----x-----x-----|
A/---6-----6-----5-----5-----0-----x-----x-----x-----|
E/---4-----x-----3-----3-----x-----3-----2-----1-----|




Intro: 

E  E/D  A/C#  Am/C (x2)


Verse I:

E       E/D     A/C#
Wore a suit today
     Am/C        E
I'm almost ready
       E/D        A/C#
On the news they say
    Am/C         D
The dow is steady 
      A/C#        D/C      G/B
Got a picture inside my mind
      Gm/Bb
Of a place and time



Verse II:

E      E/D     A/C#
Took a mornin' train
       Am/C        E
Opened up the paper
          E/D       A/C# 
Tryin' to find the name
      Am/C         D
Of a total stranger
        A/C#      D/C        G/B
Now I'm readin between the lines
        Gm/Bb
Lookin' for a sign



Chorus: 

Bb
Out there
         Dm
There's someone just as crazy
C#                             Ab        Eb
Someone who is waiting for somebody like me
    Bb
Somewhere out there
         Dm
There's someone just as scared
C#                                 Gsus4        G
Searchin' for that someone who is just as out there
    A A/G D/F# Dm/F
As me
    A A/G D/F# Dm/F
As me



Verse III:

E      E/D    A/C#
Wish I had a map
        Am/C        E
To find my direction
     E/D         A/C#
So I don't lose track
         Am/C         D
And miss my connection
   A/C#            D/C      G/B
I still don't know who you are
         Gm/Bb
But I've come so far



Chorus: 

Bb
Out there
         Dm
There's someone just as crazy
C#                             Ab        Eb
Someone who is waiting for somebody like me
    Bb
Somewhere out there
         Dm
There's someone just as scared
C#                                 Gsus4        G
Searchin' for that someone who is just as out there


E     E/D     A/C# Am/C
I can hardly wait


Instrumental:
D  C/D  G/B  Gm/Bb x2 E  E/D  A/C#  Am/C


B = bend
h = hammer on
p = pull off
/ = slide up
\ = slide down

     
   D            C/D          G/B      Gm/Bb             
e/-------------------------------------------------------|
B/------17b19-17b19b17--15h17-15\----11b13b13--11b13-10--|
G/--14-------------------------------12b14b12--12b14-11--|
D/-------------------------------------------------------|
A/-------------------------------------------------------|
E/-------------------------------------------------------|


   D       C/D              G/B       Gm/Bb
e/------------------------------------------|
B/--7-8-9/10--------------------------------|
G/-----------7--9b10b9-7--9b11b11-7---------|
D/----------------------------------8-------|
A/------------------------------------------|
E/------------------------------------------|


   E                   E/D          
e/----------------------------------|
B/--9-------9h10-10/12-12/14-14-17--|
G/-----9-11-------------------------|
D/----------------------------------|
A/----------------------------------|
E/----------------------------------|


            A/C#                  Am/C
e/--------------------------------------------------|
B/--17h19-19b21-19b21-19b21b19--20b22b20------------|
G/---------------------------------------17--17b19--|
D/--------------------------------------------------|
A/--------------------------------------------------|
E/--------------------------------------------------|



Chorus: 

Bb
Out there
         Dm
There's someone just as crazy
C#                             Ab        Eb
Someone who is waiting for somebody like me
    Bb
Somewhere out there
         Dm
There's someone just as scared
C#                                 Gsus4        G
Searchin' for that someone who is just as out there


    A A/G D/F# Dm/F
As me                Repeat till fade out




Добавлено: 24.05.2012
Другие материалы по этой песне:
  • Аккорды и текст

Страница создана 24.05.2012
http://primanota.ru/drake-bell/out-there-chords.htm
Привет, Гость.
Предлагаем пройти революционный курс по гитаре.
Подарок от PrimaNota.Ru, забирай!