PrimaNota.ru - самый крупный в мире бесплатный архив песенных текстов, аккордов, табулатур и нот


Drake Bell - Big Shot - аккорды и текст, видео

Регистрация Запомнить меня
Войти через:  Facebook Google Twitter Vk Yandex Mail.ru

Drake Bell - Big Shot - аккорды и текст, видео

Печатать
Просмотров: 147
Big Shot
Drake Bell
xxxxxxxxxxxxxxxxxxxxxxxxxxxxxxxxxxxxxxxxxxxxxxxxxxxxxxxxxxxxxxxxxxxxxxxxxxxxxxxxxxxxxxxxxxxxxxxxxx
                                            B i g   S h o t
                                       G u i t a r   C h o r d s
                                          D R A K E   B E L L
xxxxxxxxxxxxxxxxxxxxxxxxxxxxxxxxxxxxxxxxxxxxxxxxxxxxxxxxxxxxxxxxxxxxxxxxxxxxxxxxxxxxxxxxxxxxxxxxxx


                   +--------------------------PLEASE NOTE--------------------------+
                   + This file is the work of Jordan Lapping and represents his    +
                   + transcription of the song. You may only use this file for     +
                   + private study, scholarship, or research. The contents may not +
                   + be duplicated for use with other websites without written     +
                   + permission. Thank you for understanding. Enjoy.               +
                   +---------------------------------------------------------------+


Tabbed by Jordan Lapping

Tuning: E (Standard)


 CHORDS USED:
     A7   B    C    Cm  C/B   Em  Em7   F    G
e]---5----2----x----3----x----7----7----1----3---|
B]---5----4----5----4----5----8----8----1----3---|
G]---6----4----5----5----5----9----7----2----4---|
D]---5----4----5----5----5----9----9----3----5---|
A]---7----2----3----3----2----7----7----3----5---|
E]---5----------------------------------1----3---|



 INTRO [keyboard]:
G



 VERSE 1 [keyboard]:
G                                       G
  Single room in the cheap part of town, and the elevator's broken down
    C/B C                  C/B     C                                                  (G)
  So I walk up the stairs, no-one cares about the rent when you're paying that bill as me
G                                      G
  Dirty dishes and a stain on my shirt, I eat alone when I'm not at work
      C/B        C                   C/B     C
  But tell me, what did you think? I am the same, haven't changed, just been going by a 
different name



 PRE-CHORUS 1:
    G         B         Em7       A7
e]--------3-------2---------------7--|
B]--3---------4-----4---8---------7--|
G]----4---------4---------7-------6--|
D]------5-------------------9-----5--|
A]----------------------------7---7--|
E]--------------------------------5--|

G         B              Em7            A7
  What a waste, now I'm coming back to say



  CHORUS 1:
        G               F                Em                       C
  I'm no big shot, big town, big money, hop in my jet and fly it all around the country
G                     F                  Em                                C
  Sometimes when the weather's right, I sail out to the ocean, stay there overnight
        G                            F 
  Well, I went from broke since the last time we spoke
       Em                       C   Cm
  Now I'm coming back here to stay, everything is going my way



 TRANSITION 1: [triads]
    G         G7        Em        C
e]--x-x-x-x---x-x-x-x---x-x-x-x---x-x-x-x---|
B]--8-8-8-8---8-8-8-8---8-8-8-8---8-8-8-8---|
G]--7-7-7-7---x-x-x-x---9-9-9-9---9-9-9-9---|
D]--9-9-9-9---9-9-9-9---9-9-9-9---10101010--| (x2)
A]--x-x-x-x---8-8-8-8---x-x-x-x---x-x-x-x---|
E]------------------------------------------|



 VERSE 2:
G                                    G
  I grab the bus from the damp hotel, I grab my things and I'm ready to sell
       C/B   C                C/B       C                                                   (G)
  That I'll want out of time, all the things that I loved; all the memories that used to be mine
G                                           G                                              C
  They're gone, yeah, I've thrown them away; they're gone, I'm never gonna mess up here today
             C
  Will they ask another day?



 PRE-CHORUS 2:
    G         B         Em7       A7
e]--------3-------2---------------7--|
B]--3---------4-----4---8---------7--|
G]----4---------4---------7-------6--|
D]------5-------------------9-----5--|
A]----------------------------7---7--|
E]--------------------------------5--|

G         B              Em7            A7
  What a waste, now I'm coming back to say



  CHORUS 2:
        G               F                Em                       C
  I'm no big shot, big town, big money, hop in my jet and fly it all around the country
G                     F                  Em                                C
  Sometimes when the weather's right, I sail out to the ocean, stay there overnight
        G                            F 
  Well, I went from broke since the last time we spoke
       Em                       C   Cm
  Now I'm coming back here to stay, everything is going my way



 TRANSITION 2: [triads]
    G         G7        Em        C
e]--x-x-x-x---x-x-x-x---x-x-x-x---x-x-x-x---|
B]--8-8-8-8---8-8-8-8---8-8-8-8---8-8-8-8---|
G]--7-7-7-7---x-x-x-x---9-9-9-9---9-9-9-9---|
D]--9-9-9-9---9-9-9-9---9-9-9-9---10101010--| (x2)
A]--x-x-x-x---8-8-8-8---x-x-x-x---x-x-x-x---|
E]------------------------------------------|



 BRIDGE/SOLO:
G - F - Em - C (x4)



  CHORUS 3:
        G               F                Em                       C
  I'm no big shot, big town, big money, hop in my jet and fly it all around the country
G                     F                  Em                                C
  Sometimes when the weather's right, I sail out to the ocean, stay there overnight
        G                            F 
  Well, I went from broke since the last time we spoke
       Em                       C   Cm
  Now I'm coming back here to stay, everything is going my way



 TRANSITION 3: [triads]
    G         G7        Em        C
e]--x-x-x-x---x-x-x-x---x-x-x-x---x-x-x-x---|
B]--8-8-8-8---8-8-8-8---8-8-8-8---8-8-8-8---|
G]--7-7-7-7---x-x-x-x---9-9-9-9---9-9-9-9---|
D]--9-9-9-9---9-9-9-9---9-9-9-9---10101010--| (x3)
A]--x-x-x-x---8-8-8-8---x-x-x-x---x-x-x-x---|
E]------------------------------------------|



 OUTRO:
G - F - Em - C (x8)
G - F - Em - C - G




xxxxxxxxxxxxxxxxxxxxxxxxxxxxxxxxxxxxxxxxxxxxxxxxxxxxxxxxxxxxxxxxxxxxxxxxxxxxxxxxxxxxxxxxxxxxxxxxxx

xxxxxxxxxxxxxxxxxxxxxxxxxxxxxxxxxxxxxxxxxxxxxxxxxxxxxxxxxxxxxxxxxxxxxxxxxxxxxxxxxxxxxxxxxxxxxxxxxx
Добавлено: 14.11.2013
Другие материалы по этой песне:
  • Аккорды и текст

Страница создана 04.09.2013
http://primanota.ru/drake-bell/big-shot-chords.htm
Привет, Гость.
Предлагаем пройти революционный курс по гитаре.
Подарок от PrimaNota.Ru, забирай!