PrimaNota.ru - самый крупный в мире бесплатный архив песенных текстов, аккордов, табулатур и нот


Drake Bell - All Alone At The Disco - аккорды и текст, таба, видео

Регистрация Запомнить меня
Войти через:  Facebook Google Twitter Vk Yandex Mail.ru

Drake Bell - All Alone At The Disco - аккорды и текст, таба, видео

Печатать
Просмотров: 133
All Alone At The Disco
Drake Bell
xxxxxxxxxxxxxxxxxxxxxxxxxxxxxxxxxxxxxxxxxxxxxxxxxxxxxxxxxxxxxxxxxxxxxxxxxxxxxxxxxxxxxxxxxxxxxxxxxx
                             A l l   A l o n e   A t   T h e   D i s c o
                                   ( M y s p a c e   M u s i c )
                                         D R A K E   B E L L
xxxxxxxxxxxxxxxxxxxxxxxxxxxxxxxxxxxxxxxxxxxxxxxxxxxxxxxxxxxxxxxxxxxxxxxxxxxxxxxxxxxxxxxxxxxxxxxxxx


                   +--------------------------PLEASE NOTE--------------------------+
                   + This file is the work of Jordan Lapping and represents his    +
                   + transcription of the song. You may only use this file for     +
                   + private study, scholarship, or research. The contents may not +
                   + be duplicated for use with other websites without written     +
                   + permission. Thank you for understanding. Enjoy.               +
                   +---------------------------------------------------------------+


Tabbed by Jordan Lapping

Tuning: E (Standard)


 CHORDS USED:
     Bb  Bb7   C   C#   C7   E    E7   Eb  Eb9   F7  Fm7  F#7   G    Ab   G7  Ab7
e]---6----6----x---x----8----12---12---x----6----1----8----2----3----4----3----4---|
B]---6----6----5---6----8----12---12---8----6----1----9----2----3----4----3----4---|
G]---7----7----5---6----9----13---13---8----6----2----8----3----4----5----4----5---|
D]---8----6----5---6----8----14---12---8----5----1----10---2----5----6----3----4---|
A]---8----8----3---4----10---14---14---6----6----3----8----4----5----6----5----6---|
E]---6----6-------------8----12---12-------------1---------2----3----4----3----4---|



 TABULATURE LEGEND:
(x) = muted notes
(\) = slide down
(~) = let it ring



 INTRO:
      Fm7             C7              Bb7   Eb9   Ab7   C7
  e]--8--8-8-8--8-8---8--8-8-8--8-8---6-66--6-66--4-44--3-33--|
  B]--9--9-9-9--9-9---8--8-8-8--8-8---6-66--6-66--4-44--5-55--|
  G]--8--8-8-8--8-8---9--9-9-9--9-9---7-77--6-66--5-55--3-33--|
  D]--10-101010-1010--8--8-8-8--8-8---6-66--5-55--4-44--5-55--| (x2)
  A]--8--8-8-8--8-8---10-101010-1010--8-88--6-66--6-66--3-33--|
  E]------------------8--8-8-8--8-8---6-66--------4-44--------|



 VERSE 1:
      Fm7             C7              Bb7   Eb9   Ab7   C7
  e]--8--8-8-8--8-8---8--8-8-8--8-8---6-66--6-66--4-44--3-33--|
  B]--9--9-9-9--9-9---8--8-8-8--8-8---6-66--6-66--4-44--5-55--|
  G]--8--8-8-8--8-8---9--9-9-9--9-9---7-77--6-66--5-55--3-33--|
  D]--10-101010-1010--8--8-8-8--8-8---6-66--5-55--4-44--5-55--| (x2)
  A]--8--8-8-8--8-8---10-101010-1010--8-88--6-66--6-66--3-33--|
  E]------------------8--8-8-8--8-8---6-66--------4-44--------|

Fm7                           C7
  Well, I know I should have checked in last night
Bb7           Eb9              Ab7    C7
  But I just couldn't make my flight
Fm7                      C7
  The taxi cab, well it took some time 
Bb7           Eb9           Ab7    C7
  'Cause the change wasn't right 



 PRE-CHORUS:
      F       F# G  Ab        G  F# F          F# G  Ab        Eb
  e]--1-1111--2--3--4-444--|--3--2--1-1111--|--2--3--4-444--|--x-xx-x--|
  B]--1-1111--2--3--4-444--|--3--2--1-1111--|--2--3--4-444--|--8-xx-8--|
  G]--2-2222--3--4--5-555--|--4--3--2-2222--|--3--4--5-555--|--8-xx-8--|
  D]--3-3333--4--5--6-666--|--5--4--3-3333--|--4--5--6-666--|--8-xx-8--|
  A]--3-3333--4--5--6-666--|--5--4--3-3333--|--4--5--6-666--|--6-xx-6--|
  E]--1-1111--2--3--4-444--|--3--2--1-1111--|--2--3--4-444--|----------|

F                      F#  G    Ab            G  F#  F
  Well, I'm not ready for some funk soul breakdown
F          F#  G   Ab    Eb
  I'm not here to dance



 CHORUS 1:
      Ab                   Eb                   Bbm                  C#
  e]--4-xx-4-xx-4-xx-4-xx--x-xx-x-xx-x-xx-x-xx--6-xx-6-xx-6-xx-6-xx--x-xx-x-xx-x-xx-x-xx--|
  B]--4-xx-4-xx-4-xx-4-xx--8-xx-8-xx-8-xx-8-xx--6-xx-6-xx-6-xx-6-xx--6-xx-6-xx-6-xx-6-xx--|
  G]--5-xx-5-xx-5-xx-5-xx--8-xx-8-xx-8-xx-8-xx--6-xx-6-xx-6-xx-6-xx--6-xx-6-xx-6-xx-6-xx--|
  D]--6-xx-6-xx-6-xx-6-xx--8-xx-8-xx-8-xx-8-xx--8-xx-8-xx-8-xx-8-xx--6-xx-6-xx-6-xx-6-xx--|
  A]--6-xx-6-xx-6-xx-6-xx--6-xx-6-xx-6-xx-6-xx--8-xx-8-xx-8-xx-8-xx--4-xx-4-xx-4-xx-4-xx--|
  E]--4-xx-4-xx-4-xx-4-xx-----------------------6-xx-6-xx-6-xx-6-xx-----------------------|

      Ab                   Eb                   Bbm            C#
  e]--4-xx-4-xx-4-xx-4-xx--x-xx-x-xx-x-xx-x-xx--6-xx-6-xx-666--x-xxxxxx--|
  B]--4-xx-4-xx-4-xx-4-xx--8-xx-8-xx-8-xx-8-xx--6-xx-6-xx-666--6-666666--|
  G]--5-xx-5-xx-5-xx-5-xx--8-xx-8-xx-8-xx-8-xx--6-xx-6-xx-666--6-666666--|
  D]--6-xx-6-xx-6-xx-6-xx--8-xx-8-xx-8-xx-8-xx--8-xx-8-xx-888--6-666666--|
  A]--6-xx-6-xx-6-xx-6-xx--6-xx-6-xx-6-xx-6-xx--8-xx-8-xx-888--4-444444--|
  E]--4-xx-4-xx-4-xx-4-xx-----------------------6-xx-6-xx-666------------|

Ab                       Eb
  All alone at the disco, singing words that I don't know
   Bbm                       C#
  Suddenly she disappears behind the smile that got me here
Ab                                      Eb
  Why'd you leave me on the dance floor? I don't know, but I want more
   Bbm                              C#
  You're the one that said it, I'm trying to forget it tonight



 TRANSITION 1:
      Fm7             C7              Bb7   Eb9   Ab7   C7
  e]--8--8-8-8--8-8---8--8-8-8--8-8---6-66--6-66--4-44--3-33--|
  B]--9--9-9-9--9-9---8--8-8-8--8-8---6-66--6-66--4-44--5-55--|
  G]--8--8-8-8--8-8---9--9-9-9--9-9---7-77--6-66--5-55--3-33--|
  D]--10-101010-1010--8--8-8-8--8-8---6-66--5-55--4-44--5-55--| (x2)
  A]--8--8-8-8--8-8---10-101010-1010--8-88--6-66--6-66--3-33--|
  E]------------------8--8-8-8--8-8---6-66--------4-44--------|



 VERSE 2:
      Fm7             C7              Bb7   Eb9   Ab7   C7
  e]--8--8-8-8--8-8---8--8-8-8--8-8---6-66--6-66--4-44--3-33--|
  B]--9--9-9-9--9-9---8--8-8-8--8-8---6-66--6-66--4-44--5-55--|
  G]--8--8-8-8--8-8---9--9-9-9--9-9---7-77--6-66--5-55--3-33--|
  D]--10-101010-1010--8--8-8-8--8-8---6-66--5-55--4-44--5-55--| (x2)
  A]--8--8-8-8--8-8---10-101010-1010--8-88--6-66--6-66--3-33--|
  E]------------------8--8-8-8--8-8---6-66--------4-44--------|

Fm7                                 C7
  Well, I know I never should have left your side, left your bed
   Bb7             Eb9             Ab7            C7
  Kept the shades drawn, kept the light from the window (So tell me)
Fm7                               C7
  Will I ever get her back? (Tell me) Will I ever get her back?
  Bb7               Eb9            Ab7      C7
  You don't have to tell me what I already know



 PRE-CHORUS:
      F       F# G  Ab        G  F# F          F# G  Ab        Eb
  e]--1-1111--2--3--4-444--|--3--2--1-1111--|--2--3--4-444--|--x-xx-x--|
  B]--1-1111--2--3--4-444--|--3--2--1-1111--|--2--3--4-444--|--8-xx-8--|
  G]--2-2222--3--4--5-555--|--4--3--2-2222--|--3--4--5-555--|--8-xx-8--|
  D]--3-3333--4--5--6-666--|--5--4--3-3333--|--4--5--6-666--|--8-xx-8--|
  A]--3-3333--4--5--6-666--|--5--4--3-3333--|--4--5--6-666--|--6-xx-6--|
  E]--1-1111--2--3--4-444--|--3--2--1-1111--|--2--3--4-444--|----------|

F                      F#  G    Ab            G  F#  F
  Well, I'm not ready for some funk soul breakdown
F          F#  G   Ab    Eb
  I'm not here to dance



 CHORUS 2:
      Ab                   Eb                   Bbm                  C#
  e]--4-xx-4-xx-4-xx-4-xx--x-xx-x-xx-x-xx-x-xx--6-xx-6-xx-6-xx-6-xx--x-xx-x-xx-x-xx-x-xx--|
  B]--4-xx-4-xx-4-xx-4-xx--8-xx-8-xx-8-xx-8-xx--6-xx-6-xx-6-xx-6-xx--6-xx-6-xx-6-xx-6-xx--|
  G]--5-xx-5-xx-5-xx-5-xx--8-xx-8-xx-8-xx-8-xx--6-xx-6-xx-6-xx-6-xx--6-xx-6-xx-6-xx-6-xx--|
  D]--6-xx-6-xx-6-xx-6-xx--8-xx-8-xx-8-xx-8-xx--8-xx-8-xx-8-xx-8-xx--6-xx-6-xx-6-xx-6-xx--|
  A]--6-xx-6-xx-6-xx-6-xx--6-xx-6-xx-6-xx-6-xx--8-xx-8-xx-8-xx-8-xx--4-xx-4-xx-4-xx-4-xx--|
  E]--4-xx-4-xx-4-xx-4-xx-----------------------6-xx-6-xx-6-xx-6-xx-----------------------|

      Ab                   Eb                   Bbm            C
  e]--4-xx-4-xx-4-xx-4-xx--x-xx-x-xx-x-xx-x-xx--6-xx-6-xx-666--x-xxxxxx--|
  B]--4-xx-4-xx-4-xx-4-xx--8-xx-8-xx-8-xx-8-xx--6-xx-6-xx-666--5-555555--|
  G]--5-xx-5-xx-5-xx-5-xx--8-xx-8-xx-8-xx-8-xx--6-xx-6-xx-666--5-555555--|
  D]--6-xx-6-xx-6-xx-6-xx--8-xx-8-xx-8-xx-8-xx--8-xx-8-xx-888--5-555555--|
  A]--6-xx-6-xx-6-xx-6-xx--6-xx-6-xx-6-xx-6-xx--8-xx-8-xx-888--3-333333--|
  E]--4-xx-4-xx-4-xx-4-xx-----------------------6-xx-6-xx-666------------|

Ab                       Eb
  All alone at the disco, singing words that I don't know
   Bbm                       C#
  Suddenly she disappears behind the smile that got me here
Ab                                      Eb
  Why'd you leave me on the dance floor? I don't know, but I want more
   Bbm                              C
  You're the one that said it, I'm trying to forget it-



 BRIDGE:
      C#        Ab        C#        Ab    C     C#        Ab        Eb
  e]--x-xxxxxx--x-xxxxxx--x-xxxxxx--x-xx--x-xx--x-xxxxxx--x-xxxxxx--x-xxxxxxx-x---|
  B]--6-666666--4-444444--6-666666--4-44--5-55--6-666666--4-444444--8-8888888-8\--|
  G]--6-666666--5-555555--6-666666--5-55--5-55--6-666666--5-555555--8-8888888-8\--|
  D]--6-666666--6-666666--6-666666--6-66--5-55--6-666666--6-666666--8-8888888-8\--|
  A]--4-444444--6-666666--4-444444--6-66--3-33--4-444444--6-666666--6-6666666-6\--|
  E]------------4-444444------------4-44------------------4-444444----------------|

      C#                 Ab
  -tonight. It's time I turned you round, let you know
             C#                     Ab       C
  (Saturday Night) I'm looking for love, or something like it
             C#            Ab
  (Saturday Night) Now I think you better watch me go
  Eb
  Everytime you try to make me stop...



 INTERLUDE:
      Ab                   Eb                   Bbm                  C#
  e]--4-xx-4-xx-4-xx-4-xx--x-xx-x-xx-x-xx-x-xx--6-xx-6-xx-6-xx-6-xx--x-xx-x-xx-x-xx-x-xx--|
  B]--4-xx-4-xx-4-xx-4-xx--8-xx-8-xx-8-xx-8-xx--6-xx-6-xx-6-xx-6-xx--6-xx-6-xx-6-xx-6-xx--|
  G]--5-xx-5-xx-5-xx-5-xx--8-xx-8-xx-8-xx-8-xx--6-xx-6-xx-6-xx-6-xx--6-xx-6-xx-6-xx-6-xx--|
  D]--6-xx-6-xx-6-xx-6-xx--8-xx-8-xx-8-xx-8-xx--8-xx-8-xx-8-xx-8-xx--6-xx-6-xx-6-xx-6-xx--| (x4)
  A]--6-xx-6-xx-6-xx-6-xx--6-xx-6-xx-6-xx-6-xx--8-xx-8-xx-8-xx-8-xx--4-xx-4-xx-4-xx-4-xx--|
  E]--4-xx-4-xx-4-xx-4-xx-----------------------6-xx-6-xx-6-xx-6-xx-----------------------|



 CHORUS:
      Ab                   Eb                   Bbm                  C#
  e]--4-xx-4-xx-4-xx-4-xx--x-xx-x-xx-x-xx-x-xx--6-xx-6-xx-6-xx-6-xx--x-xx-x-xx-x-xx-x-xx--|
  B]--4-xx-4-xx-4-xx-4-xx--8-xx-8-xx-8-xx-8-xx--6-xx-6-xx-6-xx-6-xx--6-xx-6-xx-6-xx-6-xx--|
  G]--5-xx-5-xx-5-xx-5-xx--8-xx-8-xx-8-xx-8-xx--6-xx-6-xx-6-xx-6-xx--6-xx-6-xx-6-xx-6-xx--|
  D]--6-xx-6-xx-6-xx-6-xx--8-xx-8-xx-8-xx-8-xx--8-xx-8-xx-8-xx-8-xx--6-xx-6-xx-6-xx-6-xx--|
  A]--6-xx-6-xx-6-xx-6-xx--6-xx-6-xx-6-xx-6-xx--8-xx-8-xx-8-xx-8-xx--4-xx-4-xx-4-xx-4-xx--|
  E]--4-xx-4-xx-4-xx-4-xx-----------------------6-xx-6-xx-6-xx-6-xx-----------------------|

      Ab                   Eb                   Bbm            C#
  e]--4-xx-4-xx-4-xx-4-xx--x-xx-x-xx-x-xx-x-xx--6-xx-6-xx-666--x-xxxxxx--|
  B]--4-xx-4-xx-4-xx-4-xx--8-xx-8-xx-8-xx-8-xx--6-xx-6-xx-666--6-666666--|
  G]--5-xx-5-xx-5-xx-5-xx--8-xx-8-xx-8-xx-8-xx--6-xx-6-xx-666--6-666666--|
  D]--6-xx-6-xx-6-xx-6-xx--8-xx-8-xx-8-xx-8-xx--8-xx-8-xx-888--6-666666--|
  A]--6-xx-6-xx-6-xx-6-xx--6-xx-6-xx-6-xx-6-xx--8-xx-8-xx-888--4-444444--|
  E]--4-xx-4-xx-4-xx-4-xx-----------------------6-xx-6-xx-666------------|

Ab                       Eb
  All alone at the disco, singing words that I don't know
   Bbm                        C#
  Suddenly she disappeared behind the smile that got me here
Ab                                      Eb
  Why'd you leave me on the dance floor? I don't know, but I want more
   Bbm                              C#
  You're the one that said it, I'm trying to forget it tonight



 OUTRO:
      Ab               Bb               C#
  e]--4-4-4-4-4-4-4-4--6-6-6-6-6-6-6-6--9--9--9--9--9--9--9--9---|
  B]--4-4-4-4-4-4-4-4--6-6-6-6-6-6-6-6--9--9--9--9--9--9--9--9---|
  G]--5-5-5-5-5-5-5-5--7-7-7-7-7-7-7-7--10-10-10-10-10-10-10-10--|
  D]--6-6-6-6-6-6-6-6--8-8-8-8-8-8-8-8--11-11-11-11-11-11-11-11--|
  A]--6-6-6-6-6-6-6-6--8-8-8-8-8-8-8-8--11-11-11-11-11-11-11-11--|
  E]--4-4-4-4-4-4-4-4--6-6-6-6-6-6-6-6--9--9--9--9--9--9--9--9---|

      E                        E7                       Ab
  e]--12-12-12-12-12-12-12-12--12-12-12-12-12-12-12-12--4~~~--|
  B]--12-12-12-12-12-12-12-12--12-12-12-12-12-12-12-12--4~~~--|
  G]--13-13-13-13-13-13-13-13--13-13-13-13-13-13-13-13--5~~~--|
  D]--14-14-14-14-14-14-14-14--12-12-12-12-12-12-12-12--6~~~--|
  A]--14-14-14-14-14-14-14-14--14-14-14-14-14-14-14-14--6~~~--|
  E]--12-12-12-12-12-12-12-12--12-12-12-12-12-12-12-12--4~~~--|




xxxxxxxxxxxxxxxxxxxxxxxxxxxxxxxxxxxxxxxxxxxxxxxxxxxxxxxxxxxxxxxxxxxxxxxxxxxxxxxxxxxxxxxxxxxxxxxxxx

xxxxxxxxxxxxxxxxxxxxxxxxxxxxxxxxxxxxxxxxxxxxxxxxxxxxxxxxxxxxxxxxxxxxxxxxxxxxxxxxxxxxxxxxxxxxxxxxxx
Добавлено: 28.02.2014
Другие материалы по этой песне:
  • Аккорды и текст

Страница создана 07.09.2013
http://primanota.ru/drake-bell/all-alone-at-the-disco-chords.htm
Привет, Гость.
Предлагаем пройти революционный курс по гитаре.
Подарок от PrimaNota.Ru, забирай!