PrimaNota.ru - самый крупный в мире бесплатный архив песенных текстов, аккордов, табулатур и нот


Drain - Crack The Liars Smile - аккорды и текст, таба, видео

Регистрация Запомнить меня
Войти через:  Facebook Google Twitter Vk Yandex Mail.ru

Drain - Crack The Liars Smile - аккорды и текст, таба, видео

Печатать
Просмотров: 124
Уроки эстрадного вокала в Санкт-Петербурге
Crack The Liars Smile
Drain
		   t. See http://www..net/faq/ for more information.                     #
#-----------------------------------------------------------------------------#



Artist: Drain
Record: Horror Wrestling (1996)
Song  : Crack a liars smile

Transcribed by Jari Levisto (Levari@yeayea.com)

Easy song to play and it sounds great!!
Clean tone gtr. Doubles the Dist. Troughout the song.
You'll have to find out the timing by yourself.



Figure 1 (Main Fig.)

  F#5                    A5      G#5
G-----------------------|----------------|
D-4----4---4----4----4--|----------------|
A-4----4---4----4----4--|7-7-xx--6-6-xx--|
E-2----2---0h2--0h2--0h2|5-5-xx--4-4-xx--|


Figure 2  (Chorus Fig.)

  G5             B5

G--------------|-4--4---------|
D-5--5---------|-4--4---------|
A-5--5---------|-2--2---------|
E-3--3---------|--------------|


Fill 1          Fill 2          Fill 3

  B5             A5             (w/wah wah)

G-4--4----------|-2--2---------|--------------|
D-4--4----------|-2--2---------|--------------|
A-2--2----------|-0--0---------|xxxx-xxxx-----|
E---------------|--------------|xxxx-xxxx-----|


Playing order

Intro    Figure 1  2*          (Clean tone)
         Figure 1  2* + Fill 3 (Distortion)
Verse    Figure 1  4*
Pre-cho  Figure 1  2* + Fill 1
Chorus   Figure 2  4*
         Fill 2
         Figure 1  2* + Fill 3
Verse    Figure 1  4*
Pre-cho  Figure 1  2* + Fill 1
Chorus   Figure 2  4*
         Fill 2
Solo     Figure 1  4*
Pre-cho  Figure 1  3* + Fill 1
Chorus   Figure 2  4* + Fill 2 (Clean tone)


Please send corrections or praises to (Levari@yeayea.com)

"This we know, earth does not belong to man, man belongs to earth."

Seattle  1854     
Добавлено: 28.10.2013
Другие материалы по этой песне:
  • Аккорды и текст

Страница создана 12.04.2012
http://primanota.ru/drain/crack-the-liars-smile-chords.htm
Привет, Гость.
Предлагаем пройти революционный курс по гитаре.
Подарок от PrimaNota.Ru, забирай!