PrimaNota.ru - самый крупный в мире бесплатный архив песенных текстов, аккордов, табулатур и нот


Drain Sth - Unforgiving hours - текст песни, бас-таба, видео

Регистрация Запомнить меня
Войти через:  Facebook Google Twitter Vk Yandex Mail.ru

Drain Sth - Unforgiving hours - текст песни, бас-таба, видео

Печатать
Просмотров: 95
Уроки эстрадного вокала в Санкт-Петербурге
-------------------------------------------------------------------------------
                             Unforgiving Hours - Drain Sth
-------------------------------------------------------------------------------
Tabbed by: stancranford
E-mail: simonhawkinsuk@gmail.com

Tuning: DGCF

Verse

F|------------------------|
C|------------------------|
G|----------------1-------|
D|-0---0--2h3-0-------3---|

Bridge 1

F|---------------------------|
C|---------------------------|
G|-0---0---------1----1------|
D|--------2h3----------------|

Chorus
                                              x3
F|---------------------------------------------|---------------------------------|
C|---------------------------------------------|---------------------------------|
G|------------------1--1-1-1-1--0--0-0-0-0-0---|------------------1--1-1-1-1--0--|
D|-0--0--0--2h3--0-----------------------------|-0--0--0--2h3--0-----------------|

Guitar Solo
                                     
F|--------------------------------------------------|
C|---------------------------2h3---2h3---2h3--------|
G|-------------------1-----0-----0-----0-----1------|
D|-0-2h3-0-2h3-0-2h3----3-----------------------3---|

Bridge 2

F|---------------------------------------------------|
C|---2h3---2h3---2h3---------2h3---2h3---2h3---------|
G|-0-----0-----0-----1-----0-----0-----0-----1---1---|
D|----------------------3----------------------------|

Outro

F|------------|
C|------------|
G|------1-----|
D|-0-------3--|


Order:
No bass until 2nd verse
Verse x 8
Bridge 1 x 2
Chorus x 1
Guitar Solo x 2
Bridge 2 x 1
Chorus x 1
Outro x to fade


| /  slide up
| \  slide down
| h  hammer-on
| p  pull-off
| ~  vibrato
| +  harmonic
| x  Mute note
===============================================================================
Добавлено: 12.10.2015
Другие материалы по этой песне:
  • Аккорды и текст

Страница создана 30.06.2012
http://primanota.ru/drain-sth/unforgiving-hours-chords.htm
Привет, Гость.
Предлагаем пройти революционный курс по гитаре.
Подарок от PrimaNota.Ru, забирай!