PrimaNota.ru - самый крупный в мире бесплатный архив песенных текстов, аккордов, табулатур и нот


Drain Sth - Leech - текст песни, бас-таба, видео

Регистрация Запомнить меня
Войти через:  Facebook Google Twitter Vk Yandex Mail.ru

Drain Sth - Leech - текст песни, бас-таба, видео

Печатать
Просмотров: 47
-------------------------------------------------------------------------------
                             Leech - Drain Sth
-------------------------------------------------------------------------------
Tabbed by: stancranford
E-mail: simonhawkinsuk@gmail.com

Tuning: CGCF

Intro/Verse

F|---------------------------------------------------------------------------|
C|---------------------------------------------------------------------------|
G|-3-5-5-3-5-5-3-5-5-3-5-5-3-5-5---------------------------------------------|
C|---------------------------------------------------------------------------|

Bridge 1

F|-----------------|
C|-----------------|
G|-5-------3-------|
C|-----------------|

Chorus

F|--------------------------------------------------------------------------|
C|--------------------------------------------------------------------------|
G|----5----------------------------5----------------------------------------|
C|-0-----6-6-6--5-5-5--3-3-3-3--0-----6-6-6--5-5-5-5-5-5-5-5----------------|

Riff 2

F|--------------------------------|
C|--------------------------------|
G|-------------------3------------|
C|-0--0-0--0-0--0-0------4--------|


Bridge 2

F|---7-/10--10\5-/-7--|
C|--------------------|
G|-5------------------|
C|--------------------|

Chorus 2 

G|---7-9-7-------------------------------------------------------------------|
D|---------------------------------------------------------------------------|
A|-------------------------------5-------------------------------------------|
E|-0-------6--5-5-5--3-3-3-3--0-----6-6-6-5-5-5-5-5-5-5-5--------------------|

Breakdown 1

F|-------------------|
C|-------------------|
G|-------------------|
C|-3-2-0-0--3-2-0-0--|

Breakdown 2

F|------------------------------|
C|------------------------------|
G|------------------------------|
C|-3-2-0-0--3-2-0-0--0-0-0-0----|

Order:
Intro x 12
Bridge 1 x 1
Chorus 1 x 2
Riff 2 x 4
Verse x 8
Bridge 2 x 1
Chorus 2 x 1
Chorus 1 x 1
Intro x 4
Breakdown 1 x 4
Breakdown 2 x 4
Rest
Chorus 1 x 5
Intro to fade out



| /  slide up
| \  slide down
| h  hammer-on
| p  pull-off
| ~  vibrato
| +  harmonic
| x  Mute note
===============================================================================
Добавлено: 12.10.2015
Другие материалы по этой песне:
  • Аккорды и текст

Страница создана 28.06.2012
http://primanota.ru/drain-sth/leech-chords.htm
Привет, Гость.
Предлагаем пройти революционный курс по гитаре.
Подарок от PrimaNota.Ru, забирай!