PrimaNota.ru - самый крупный в мире бесплатный архив песенных текстов, аккордов, табулатур и нот


Drain Sth - I Wish - текст песни, таба, бас-таба, драм-таба, видео

Регистрация Запомнить меня
Войти через:  Facebook Google Twitter Vk Yandex Mail.ru

Drain Sth - I Wish - текст песни, таба, бас-таба, драм-таба, видео

Печатать
Просмотров: 240
T. See http://www.olga.net/faq/ for more information.                     #
From: "Levis" 
Subject: d/drain/i_wish.tab
Date: Sat, 20 Nov 1999 11:25:45 -0600
Artist: Drain Sth
Song: I wish...
Album: Freaks of nature (1999)
By: Jari Levisto (Levari@yeayea.com)
Standard tuning
Intro (Clean tone acoustic)
C5               D#5              F5
E||----------------|---------------|-----------------|
B||----------------|---------------|-----------------|
G||-5--5-----x-x-5/|8-8-8-----x-x--|-10-10-----x-x10/|
D||-5--5-----x-x-5/|8-8-8-----x-x--|-10-10-----x-x10/|
A||-3--3-----x-x-3/|6-6-6-----x-x--|-8--8------x-x-8/|
E||----------------|---------------|-----------------|
G#5         G5
|--------------------||
|--------------------||
|13--13--13\12--12---||
|13--13--13\12--12---||
|11--11--11\10--10---||
|--------------------||
Rhy.Fig. 1 (Dist.)
C5               D#5              F5
||----------------|---------------|------------------|
||----------------|---------------|------------------|
||-5--5-----x-x-5/|8--8-8-----x-x-|-10-10------x-x10/|
||-5--5-----x-x-5/|8--8-8-----x-x-|-10-10------x-x10/|
||-3--3-----x-x-3/|6--6-6-----x-x-|-8--8-------x-x-8/|
||(3--3)---(x-x-3/|6--6-6)---(x-x)|(8--8)-----(x-x-8/|
G#5       G5
|---------------------||
|---------------------||
|13--13--13\12--12----||
|13--13--13\12--12----||
|11--11--11\10--10----||
|11--11--11\10--10)---||
Rhy.Fig. 2 (Clean tone)                    Fill 1.
C                                         C
||-------------------|-------------------||-3---------------|
||----------3--------|----------3--4-----||-3---------------|
||*---5--------5-----|----5-----------5-*||-5---------------|
||*------5--------5--|-------5----------*||-5---------------|
||-------------------|-------------------||-----------------|
||-------------------|-------------------||-----------------|
Solo  (Over Rhy.Fig 1)
|--------|--------|--------|-6------|3--------|-----------|
|--------|-3------|-4------|--------|---------|-4---3---1-|
|-5------|--------|--------|--------|---------|0---0---0--|
|--------|--------|--------|--------|---------|-----------|
|--------|--------|--------|--------|---------|-----------|
|--------|--------|--------|--------|---------|-----------|

|------------------------|-------3---3---|----------------|
|------------------------|---------4---4-|-3-4-3----------|
|-888\7777\5555\3333/5555|-5---5---------|-------5--------|
|------------------------|---------------|----------------|
|------------------------|---------------|----------------|
|------------------------|---------------|----------------|
|--------------------|
|-3-4-3-4b(6)--------|
|--------------------|
|--------------------|
|--------------------|
|--------------------|
Notes:
On Rhy.Fig 1 notes on E-string aren't played on the album but     they
Give lower sound if you use them.
Rhy.Fig 2 is repeated few time during the verse. The bass         plays
(C,D#,F,G#,G)
Fill 1 is the last bar of verse
I hope this helps you a bit. Please send me any corrections or   praises
To (Levari@yeayea.com)
"This we know, earth does not belong to man, man belongs to earth."
Seattle  1854
Добавлено: 30.06.2012
Другие материалы по этой песне:
  • Аккорды и текст

Страница создана 22.04.2012
http://primanota.ru/drain-sth/i-wish-chords.htm
Привет, Гость.
Предлагаем пройти революционный курс по гитаре.
Подарок от PrimaNota.Ru, забирай!