PrimaNota.ru - самый крупный в мире бесплатный архив песенных текстов, аккордов, табулатур и нот


Drain Sth - I Don't Mind - текст песни, бас-таба, видео

Регистрация Запомнить меня
Войти через:  Facebook Google Twitter Vk Yandex Mail.ru

Drain Sth - I Don't Mind - текст песни, бас-таба, видео

Печатать
Просмотров: 97
Уроки эстрадного вокала в Санкт-Петербурге
-------------------------------------------------------------------------------
                             I Don't Mind - Drain Sth
-------------------------------------------------------------------------------
Tabbed by: stancranford
E-mail: simonhawkinsuk@gmail.com

Tuning: DGCF

Main Riff/Verse

F|---------------------------------------------------------------------------|
C|---------------------------------------------------------------------------|
G|---------------------------------------------------------------------------|
D|-0--0-0-0-0----------------------------------------------------------------|

Bridge

F|---------------------------------------------------------------------------|
C|---------------------------------------------------------------------------|
G|-2-2-2-2-2-2-2-------------------------------------------------------------|
D|---------------2-----------------------------------------------------------|

Chorus

F|---------------------------------------------------------------------------|
C|---------------------------------------------------------------------------|
G|---------------------------------------------------------------------------|
D|-0----3----2----1----------------------------------------------------------|

Breakdown

F|---------------------------------------------------------------------------|
C|---------------------------------------------------------------------------|
G|---------------------------------------------------------------------------|
D|-0-0--0-0--0-0--0-0----0-0--0-0--0-0--0-0----0-0--0-0--0-0--0-0------------|

F|---------------------------------------------------------------------------|
C|---------------------------------------------------------------------------|
G|---------------------------------------------------------------------------|
D|-0-0--0-0--0-0--0-0--0-0---------------------------------------------------|




| /  slide up
| \  slide down
| h  hammer-on
| p  pull-off
| ~  vibrato
| +  harmonic
| x  Mute note
===============================================================================
Добавлено: 12.10.2015
Другие материалы по этой песне:
  • Аккорды и текст

Страница создана 19.04.2012
http://primanota.ru/drain-sth/i-dont-mind-chords.htm
Привет, Гость.
Предлагаем пройти революционный курс по гитаре.
Подарок от PrimaNota.Ru, забирай!