PrimaNota.ru - самый крупный в мире бесплатный архив песенных текстов, аккордов, табулатур и нот


Drain Sth - Crave - текст песни, бас-таба, видео

Регистрация Запомнить меня
Войти через:  Facebook Google Twitter Vk Yandex Mail.ru

Drain Sth - Crave - текст песни, бас-таба, видео

Печатать
Просмотров: 76
-------------------------------------------------------------------------------
                             Crave - Drain Sth
-------------------------------------------------------------------------------
Tabbed by: stancranford
E-mail: simonhawkinsuk@gmail.com

Tuning: CGCF

Main Riff/Verse

F|---------------------------------------------------------------------------|
C|---------------------------------------------------------------------------|
G|---------------------------------------------------------------------------|
C|-3-5-0--3-5-0---3-5-0--5-3-0--5-3-0---5-3-0--------------------------------|

Bridge

F|---------------------------------------------------------------------------|
C|---------------------------------------------------------------------------|
G|---------------------------------------------------------------------------|
C|-3---3-3---5--5-5-5-5------------------------------------------------------|

Chorus/Guitar Solo

F|---------------------------------------------------------------------------|
C|---------------------------------------------------------------------------|
G|---------------------------------------------------------------------------|
C|-0--0-0-0-0h3-3-3-3-3-3p2-2-2-2-2-2p1-1-1-1-1------------------------------|

Breakdown

F|---------------------------------------------------------------------------|
C|---------------------------------------------------------------------------|
G|---------------------------------------------------------------------------|
C|-3-5-0-------3-5-0-------5-3-0-------5-3-0---------------------------------|



| /  slide up
| \  slide down
| h  hammer-on
| p  pull-off
| ~  vibrato
| +  harmonic
| x  Mute note
===============================================================================
Добавлено: 12.10.2015
Другие материалы по этой песне:
  • Аккорды и текст

Страница создана 19.03.2012
http://primanota.ru/drain-sth/crave-chords.htm
Привет, Гость.
Предлагаем пройти революционный курс по гитаре.
Подарок от PrimaNota.Ru, забирай!