PrimaNota.ru - самый крупный в мире бесплатный архив песенных текстов, аккордов, табулатур и нот


Drain Sth - Black - текст песни, бас-таба, видео

Регистрация Запомнить меня
Войти через:  Facebook Google Twitter Vk Yandex Mail.ru

Drain Sth - Black - текст песни, бас-таба, видео

Печатать
Просмотров: 108
-------------------------------------------------------------------------------
                             Black - Drain Sth
-------------------------------------------------------------------------------
Tabbed by: stancranford
E-mail: simonhawkinsuk@gmail.com

Tuning: CGCF

Intro/Verse

F|-------------------------------------------------------------------------|
C|-------3---2-------------3p2p0-------------------------------------------|
G|-3-5-5---5---5-3-5-5-5-5-------3-5-----------3-5-5-5---------------------|
C|-----------------------------------0-3-0-2-0-----------------------------|

Bridge

F|-------------------------------------------------------------|
C|-------------------------------------------------------------|
G|-------------------------------------------------------------|
C|-0--0-0-0-0-2-0--5-5-5--3-3-3--2-2--0--0-0-0-0-2-0--5--3-2---|

F|-----------------------------------------|
C|-----------------------------------------|
G|-----------------------------------------|
C|-0--0-0-0-0-2-0--5-5-5--3-3-3--2-2-------|

Chorus

F|-----------------------------------------------------------------------|
C|-----------------------------------------------------------------------|
G|-----5^-----3^-----2^-----1^--------------5^-----3^-----2^-----1^-2p1--|
C|-0-0----0-0----0-0----0-0----0-3p2p0--0-0----0-0----0-0----0-0---------|

Breakdown 1

F|-----------------------------------------------------|
C|-------3---2----------------------3---2--------------|
G|-3-5-5---5---5-3-5-5-6-6-5--3-5-5---5---5-3-5-6-5----|
C|-----------------------------------------------------|

Breakdown 2

F|---------------------------------------------------------------------------|
C|---------------------------------------------------------------------------|
G|-----5^-----3^-----2^-----1^--------------5^-----3^-----2^-----1^----------|
C|--0------0------0------0------0-3p2p0--0-----0------0------0---------------|

F|-----------------------------------------------------------------------------|
C|-----------------------------------------------------------------------------|
G|-----5^-----3^-----2^-----1^--------------5^-----3^-----2^-----1^------------|
C|--0------0------0------0------0-3p2p0--0------0------0------0------3/8\3/8\3-|

Order:
Intro x5
Bridge x1
Chorus x2
Verse x3
Bridge x1
Chorus x2
Breakdown 1 x2
Breakdown 2 x1
Chorus x4
Intro x1 

| ^  bend note
| /  slide up
| \  slide down
| h  hammer-on
| p  pull-off
| ~  vibrato
| +  harmonic
| x  Mute note
===============================================================================
Добавлено: 12.10.2015
Другие материалы по этой песне:
  • Аккорды и текст

Страница создана 29.07.2012
http://primanota.ru/drain-sth/black-chords.htm
Привет, Гость.
Предлагаем пройти революционный курс по гитаре.
Подарок от PrimaNota.Ru, забирай!