PrimaNota.ru - самый крупный в мире бесплатный архив песенных текстов, аккордов, табулатур и нот


Dragonlord - Wolfhunt - текст песни, таба, видео

Регистрация Запомнить меня
Войти через:  Facebook Google Twitter Vk Yandex Mail.ru

Dragonlord - Wolfhunt - текст песни, таба, видео

Печатать
Просмотров: 107
Dragonlord - Wolfhunt (ver 1.0)

from 'Rapture'

Transcribed by: Nick Beato (entity@cfl.rr.com)

I'd like to say that a lot of people have been stealing my tabs recently...
If you think there is something wrong with it, and you base a version off
of mine, that's fine by me. JUST PLEASE DONT FUCKING REMOVE MY NAME WHEN IT
IS BLATANTLY OBVIOUS THAT YOU LEARNED MOST OF THE SONG FROM MY TAB.
I would actually like to see your ideas. So please email them...

And for those of you, who dont change anything, go fucking shoot yourselves.
I spend a lot of time tabbing songs for free because I know there's people
out there that want to know how to play them. If you want to add your name
to it, I could care less. Just don't remove my name or the website please.

sorry, just needed to vent at some of the internet lamers out there.

the tab....

tune down 1.5 steps (C# F# B E G# C#)

*i figured this out on a guitar tuned to B, so i might have mistyped
something. if something sounds really off, try moving it back 2 frets

riff A1

-----------------------------------------------------------
-----------------------------------------------------------
-----------------------------------------------------------
-9"-------7"--9"-10"--9"--7"--9"-------7"--9"-10"-12"------
-7"-------5"--7"--8"--7"--5"--7"-------5"--7"--8"-10"------
-----------------------------------------------------------

-----------------------------------------------------------
-----------------------------------------------------------
-----------------------------------------------------------
-9"-------7"--9"-10"--9"--7"--9"-------10"-12"-------------
-7"-------5"--7"--8"--7"--5"--7"--------8"-10"-------------
---------------------------------------------------\\\\\\\-

riff A2

-----------------------------------------------------------
-----------------------------------------------------------
-9"---------------------------9"---------------------------
-9"-------7"--9"-10"--9"--7"--9"-------7"--9"-10"-12"------
-7"-------5"--7"--8"--7"--5"--7"-------5"--7"--8"-10"------
-----------------------------------------------------------

-----------------------------------------------------------
-----------------------------------------------------------
-9"---------------------------9"---------------------------
-9"-------7"--9"-10"--9"--7"--9"-------10"-----------------
-7"-------5"--7"--8"--7"--5"--7"--------8"-5---------------
-------------------------------------------3---------------

riff B

gtr1&2
-----------------------------------------------------------------
-----------------------------------------------------------------
-----------------------------------------------------------------
-9-----------7---9---10--9-------9-----------7---9---10--12------
-7-----------5---7---8---7-------7-----------5---7---8---10------
-----0-0-0-0---0---0---0---0-10-8----0-0-0-0---0---0---0---0-8-10
     . . . .   .   .   .   .         . . . .   .   .   .   .

gtr1
-----------------------------------------------------------------
-----------------------------------------------------------------
-----------------------------------------------------------------
-9-----------7---9---10--9-------9-----------------------5~~-----
-7-----------5---7---8---7-------7-----------5---7---8-----------
-----0-0-0-0---0---0---0---0-10-8----0-0-0-0---------------------
gtr2 . . . .   .   .   .   .         . . . .
-----------------------------------------------------------------
-----------------------------------------------------------------
-----------------------------------------------------------------
-9-----------7---9---10--9-------9-------------------------------
-7-----------5---7---8---7-------7-------------------------------
-----0-0-0-0---0---0---0---0-10-8----0-0-0-0-\\\\\\\\\\\\\\\\\\--
     . . . .   .   .   .   .         . . . .

riff B'

gtr1&2
-----------------------------------------------------------------
-----------------------------------------------------------------
-----------------------------------------------------------------
-9---------7---9--10-----9~------9---------7---9--10-----12------
-7---------5---7---8-----7~------7---------5---7---8-----10------
---0-0-0-0---0---0---0-0---0-10-8--0-0-0-0---0---0---0-0---0-8-10
   . . . .   .   .   . .   .       . . . .   .   .   . .   .

-----------------------------------------------------------------
-----------------------------------------------------------------
-----------------------------------------------------------------
-9---------7---9--10-----9~------9-----------2-------------------
-7---------5---7---8-----7~------7---------------2---------------
---0-0-0-0---0---0---0-0---0-10-8--0-0-0-0-0---------3----0------
   . . . .   .   .   . .   .       . . . .

riff C

-----------------------------------------------------------------
-----------------------------------------------------------------
-----------------9"----------------------------------------------
-------------9"------10"-9"--7"--------------7"--9"--10"-9"--7"--
-7"------------------------------8"------------------------------
-----------------------------------------------------------------

-------------------------------------------------2 gtrs----------
-----------------------------------------------------------------
---------------------9"--------------------------10~~~---12~~~---
-------------9"--10"-----10"-9"------------------10~~~---12~~~---
-7"--------------------------------------------------------------
---------------------------------8"------------------------------

-----------------------------------------------------------------
-----------------------------------------------------------------
-----------------9"----------------------------------------------
-------------9"------10"-9"--7"--------------7"--9"--10"-9"--7"--
-7"------------------------------8"------------------------------
-----------------------------------------------------------------

-----------------------------------------------------------------
-----------------------------------------------------------------
---------------------9"------------------------------------------
-------------9"--10"-----10"-9"----------------------------------
-7"----------------------------------------------3-------5-------
---------------------------------8"--------------1-------3-------

C'

------------------------------------------------------------------
------------------------------------------------------------------
---------------------9"-------------------------------------------
-------------9"--10"-----10"-9"-----------------------------------
-7"-----------------------------------------3--3----5--5----2-----
---------------------------------8"---------1--1----3--3----0-----

Riff D

i cant make out what he's doing too well...
i sat here for over an hour just trying to get
that first part and it doesnt even sound right

trem pick everything

gtr1
----------------------------------------------------------
----------------------------------------------------------
----------------------------------------------------------
-----------------8---9-------8-------8--------------------
-----------1---1---9---10------10------9----------2-1---1-
-0-2-3-0-2---2------------12------12-----11-0-2-3-----3---
gtr2
----------------------------------------------------------
----------------------------------------------------------
--i cant make out the harmony sorry...--------------------
----------------------------------------------------------
----------------------------------------------------------
----------------------------------------------------------

Riff E

it is kinda hard to make this out so it's probably wrong

------------------------------------------------------------------
------------------------------------------------------------------
------------------------------------------------------------------
-------------------------10--9--------------------9---------------
-------------------------8---7--------------------7-10-9-12-9-7---
-1-0-0-0-1-0-0-0-1-0-0-0---0------1-0-0-0-1-0-0-0---8--7-10-7-5---
 . . . . . . . . . . . .   .      . . . . . . . .

------------------------------------------------------------------
------------------------------------------------------------------
------------------------------------------------------------------
-------------------------10--9------------------------------------
-------------------------8---7--------------------7-------5-------
-1-0-0-0-1-0-0-0-1-0-0-0---0------1-0-0-0-1-0-0-0----8--7---7-5---
 . . . . . . . . . . . .   .      . . . . . . . . .  .  . . . .

Riff E' (last time)

------------------------------------------------------------------
------------------------------------------------------------------
------------------------------------------------------------------
-------------------------10--9----------------------------7-------
-------------------------8---7--------------------7-------5-------
-1-0-0-0-1-0-0-0-1-0-0-0---0------1-0-0-0-1-0-0-0----8--7---------
 . . . . . . . . . . . .   .      . . . . . . . . .  .  . .

Riff A3 (last time for end of song)

-----------------------------------------------------------
-----------------------------------------------------------
-9"---------------------------9"---------------------------
-9"-------7"--9"-10"--9"--7"--9"-------10"-----------------
-7"-------5"--7"--8"--7"--5"--7"--------8"-5------5--5-----
-------------------------------------------3------3--3-----

---------------------------------------------------
---------------------------------------------------
--------------one guitar hits toggle switch--------
---------------------------------------------------
---2----------other guitar dives down with bar-----
---0-----------------------------------------------


please email any corrections or comments:
entity@cfl.rr.com

This file was downloaded from...
Musical Manifestations
(http://home.cfl.rr.com/xezlorir/mm)
if the link is not found, email: Xezlorir@hotmail.com
Добавлено: 17.05.2012
Другие материалы по этой песне:
  • Аккорды и текст

Страница создана 17.05.2012
http://primanota.ru/dragonlord/wolfhunt-chords.htm
Привет, Гость.
Предлагаем пройти революционный курс по гитаре.
Подарок от PrimaNota.Ru, забирай!