PrimaNota.ru - самый крупный в мире бесплатный архив песенных текстов, аккордов, табулатур и нот


Dragonland - Hundred Years Have Passed - текст песни, таба, видео

Регистрация Запомнить меня
Войти через:  Facebook Google Twitter Vk Yandex Mail.ru

Dragonland - Hundred Years Have Passed - текст песни, таба, видео

Печатать
Просмотров: 129
                  |---3---|             |---3---|              
     H.           E   E   E      Q      E   E   E   H          
D||--------------------------|-------------11--13--14~--------|
A||--------------------------|--11~-----L---------------------|
F||------------------11--13--|--------------------------------|
C||--------------------------|--------------------------------|
G||--------------------------|--------------------------------|
C||--------------------------|--------------------------------|


         |---3---|                        |---3---|         |---3---|   
   Q     E   E   E   H             Q      E   E   E   Q     E   E   E   
-------------------------------|-------------11--13--14~----L--14--16--|
--14~----L--12--11-------------|--11~-----L----------------------------|
--------------------13~--------|---------------------------------------|
-------------------------------|---------------------------------------|
-------------------------------|---------------------------------------|
-------------------------------|---------------------------------------|


         |---3---|                       |---3---|              
   Q     E   E   E   H             Q     E   E   E   H          
--18~----L--19--18--16~--------|------------11--13--14~--------|
-------------------------------|--11~----L---------------------|
-------------------------------|-------------------------------|
-------------------------------|-------------------------------|
-------------------------------|-------------------------------|
-------------------------------|-------------------------------|


   |---3--|  |---3--|          |---3---|            |---3--|         |---3--|   
   E  E   E  E   E  E   Q      E   E   E      Q     E   E  E   Q     E  E   E   
------------------------------------------|------------------------------------|
--14-----12-----11--------------------11--|--12~----L--11--9--11~----L--9------|
-----------------------13~-----L--13------|--------------------------------11--|
------------------------------------------|------------------------------------|
------------------------------------------|------------------------------------|
------------------------------------------|------------------------------------|


         |--3--|              
   Q     E  E  E  H           
----------------------------||
----------------------------||
--10~----L--8--7--8~--------||
----------------------------||
----------------------------||
----------------------------||




Duration Legend
---------------
W - whole
H - half
Q - quarter
E - 8th
S - 16th
T - 32nd
X - 64th
. - note dotted
|-n-|  - n-tuplets


Tablature Legend
----------------
L - tied note
x - dead note
g - grace note
(n) - ghost note
> - accentuded note
NH - natural harmonic
AH - artificial harmonic
TH - tapped harmonic
SH - semi harmonic
PH - pitch harmonic
h - hammer on
p - pull off
b - bend
br - bendRelease
pb - preBend
pbr - preBendRelease
brb - bendReleaseBend
\n/ - tremolo bar dip
\n - tremolo bar dive
-/n - tremolo bar Release up
/n\ - tremolo bar inverted dip
/n - tremolo bar return
-\n - tremolo bar Release down
S - shift slide
s - legato slide
/ -  slide into from below or out of upwards
\ -  slide into from above or out of downwards
~ - vibrato
W - wide vibrato
tr - trill
TP - tremolo picking
T - tapping
S - slap
P - pop
< - fade in
^ - brush up
v - brush down
Добавлено: 17.05.2012
Другие материалы по этой песне:

Страница создана 17.05.2012
http://primanota.ru/dragonland/hundred-years-have-passed-chords.htm
Привет, Гость.
Предлагаем пройти революционный курс по гитаре.
Подарок от PrimaNota.Ru, забирай!