PrimaNota.ru - самый крупный в мире бесплатный архив песенных текстов, аккордов, табулатур и нот


Dragonland - Astronomy - текст песни, таба, видео

Регистрация Запомнить меня
Войти через:  Facebook Google Twitter Vk Yandex Mail.ru

Dragonland - Astronomy - текст песни, таба, видео

Печатать
Просмотров: 203
Уроки эстрадного вокала в Санкт-Петербурге
      W                  H            
D||----------------------------------|
A||--12b-----------------Lpb~--------|
F||----------------------------------|
C||----------------------------------|
G||----------------------------------|
C||----------------------------------|


                                            |---3---|               
   Q      E     S  S  S  S  E.     S  S  S  E   E   E   S  S  S  S  
--12b----12br------------------------------------------------------|
---------------15-13-13-15-13br---------13-------------------------|
----------------------------------14-12----14--13--14--13-12-13----|
----------------------------------------------------------------15-|
-------------------------------------------------------------------|
-------------------------------------------------------------------|


                          PH                                    
   S  S  S  S  S  S  S    S  H          S  S  S  S  S  S  S  S  
--------------------------------------/22-17-------------------|
--------13-----------------------------------18-15-16-15-------|
--12-14----14-13-12--------------------------------------17-14-|
--------------------15--<>L--L---------------------------------|
---------------------------------------------------------------|
---------------------------------------------------------------|


                           |-----5-----|                                      
   S  S  S  S  S  S  S  S  S  S  S  S  S  S  S  S  S  S  S  S  S  S  S  S  S  
-----------------------------------------------------------------------------|
--------------------------------------------------13----------------13-15-17-|
--15-12-------------------------------------14-15----------12-14-15----------|
--------14-15-12-------------------------12----------14-15-------------------|
-----------------13-15-12----------13-15-------------------------------------|
--------------------------15-17-12-------------------------------------------|

* Asterisks above 2 notes indicate 2 notes played by
  different instruments, possibly by 2 guitars or a
  guitar and keyboard. Either play only the higher note,
  or play only the lower note.

                                PH                         
   |-----5-----|                                   *        
   S  S  S  S  S  S  S  S  S    H          E   E   E   E   
--13-15-17----------13-15-17-<>20~--------17------17--18--|
-----------13-15-17---------------------------15--18------|
----------------------------------------------------------|
----------------------------------------------------------|
----------------------------------------------------------|
----------------------------------------------------------|

       *                               *
   E   E   E   E   E   E   E   E   E   E   E   E   
--17--18--15------17------17--18--17--18------17--|
------15------15------15--------------15--18------|
--------------------------------------------------|
--------------------------------------------------|
--------------------------------------------------|
--------------------------------------------------|

       *   *
   E   E   E   E   E   E   E   E   E   E   E   E   
--------------------------------------------------|
--18--17--18------15--17----------15----------13--|
------14--19--14----------12--14------10--12------|
--------------------------------------------------|
--------------------------------------------------|
--------------------------------------------------|


   E   E   E   E   E   E   E   E   H           
----------------------------------------------|
----------------------------------------------|
----------------------------------------------|
--15--14--15--14--12--14--15--12--12pb--------|
----------------------------------------------|
----------------------------------------------|


                                                PH         
                         |--------7--------|               
   H         S  S  S  S  S  S  S  S  S  S  S    H          
---------------------------------------18-22-<>18b--------|
---------------------15-18-------15-18--------------------|
------------------15----------15--------------------------|
---L---------L-15----------15-----------------------------|
----------------------------------------------------------|
----------------------------------------------------------|


   H        W                  
---L-------------------------||
-----------------------------||
-----------------------------||
-----------------------------||
-----------------------------||
-----------------------------||




Duration Legend
---------------
W - whole
H - half
Q - quarter
E - 8th
S - 16th
T - 32nd
X - 64th
. - note dotted
|-n-|  - n-tuplets


Tablature Legend
----------------
L - tied note
x - dead note
g - grace note
(n) - ghost note
> - accentuded note
NH - natural harmonic
AH - artificial harmonic
TH - tapped harmonic
SH - semi harmonic
PH - pitch harmonic
h - hammer on
p - pull off
b - bend
br - bendRelease
pb - preBend
pbr - preBendRelease
brb - bendReleaseBend
\n/ - tremolo bar dip
\n - tremolo bar dive
-/n - tremolo bar Release up
/n\ - tremolo bar inverted dip
/n - tremolo bar return
-\n - tremolo bar Release down
S - shift slide
s - legato slide
/ -  slide into from below or out of upwards
\ -  slide into from above or out of downwards
~ - vibrato
W - wide vibrato
tr - trill
TP - tremolo picking
T - tapping
S - slap
P - pop
< - fade in
^ - brush up
v - brush down
Добавлено: 05.03.2012
Вам также может быть интересно:
Другие материалы по этой песне:
  • Аккорды и текст

Страница создана 05.03.2012
http://primanota.ru/dragonland/astronomy-chords.htm
Привет, Гость.
Предлагаем пройти революционный курс по гитаре.
Подарок от PrimaNota.Ru, забирай!