PrimaNota.ru - самый крупный в мире бесплатный архив песенных текстов, аккордов, табулатур и нот


Dragonland - As Madness Took Me - текст песни, таба, видео

Регистрация Запомнить меня
Войти через:  Facebook Google Twitter Vk Yandex Mail.ru

Dragonland - As Madness Took Me - текст песни, таба, видео

Печатать
Просмотров: 135
Авторы музыки: Nicklas Magnusson, Elias Holmlid, Olof Mörck
Авторы текста: Elias Holmlid, Olof Mörck, Jonas Heidgert
As Madness Took Me - Dragonland


Intro
Guitar 1 & 2
|---------------------------------------------------------|
|---------------------------------------------------------|
|---------------------------------------------------------|
|---------------------------------------------------------|
|-2-2-2-2---2-2-2-2-2-2-2---2-2-2-2-2-2-2---2-2-2-2-2-2-2-|
|-0-0-0-0---0-0-0-0-0-0-0---0-0-0-0-0-0-0---0-0-0-0-0-0-0-|
. . . . . . . . . . . . . . . . . . . . . . . . .
Intro cont.
Guitar 1 & 2 Guitar 1
|------------------------------------------------------------------|------|
|------------------------------------------------------------------|------|
|------------------------------------------------------------------|------|
|-------2-2-2-2---2-2-2-2-2-2-2---2-2-2-4-4-4-4---4-4-4-4-4-4-4----|------|
|-2-2-2-0-0-0-0---0-0-0-0-0-0-0---0-0-0-2-2-2-2---2-2-2-2-2-2-2--2-|-/5~--|
|-0-0-0------------------------------------------------------------|------|
. . . . . . . . . . . . . . . . . . . . . . . . . . . . . Guitar 2
|------|
|------|
|------|
|------|
|-/9~--|
|------|
Verse:
|------------------------------------------5--|
|------------------------------------------8--|
|---------------5----7----9--------2--7----7--|
|---------------2----4----5--4--5--2--5----5--|
|-------2-------3----5----7--5--2--0--3----5--|
|-0000000--------------------2--3----------5--|
......
Verse cont.
Guitar 1
|----------------------------------------------------------------|
|----------------------------------------------------------------|
|----------------------------------------------------------------|
|----------------------5---7---9-------5---4---------------------|
|-------7---9---10-0-0---0---0---3-3-3---3---3-5-------2-------2-|
|-0-0-0---0---0----------------------------------3-3-3---2-2-2---|
| . . . . . . . . . . . . . . . . . . . .
|Guitar 2
|----------------------------------------------------------------|
|----------------------------------------------------------------|
|--------------------------------------4---2---------------------|
|-------5---7---9------2---4---5---------------5-----------------|
|------------------0-0---0---0---3-3-3---3---3---------5-------5-|
|-0-0-0---0---0----------------------------------3-3-3---2-2-2---|
. . . . . . . . . . . . . . . . . . . .
Verse cont.
Guitar 1
|---------------------------------------------------|
|--------------------------------------------3-5-3--|
|-----------------------------4----5----5----0--(0)-|
|-------------------2---4---5-4----4----2----4--(4)-|
|-------2---2-0-0-0---0---0---2----2----3----5--(5)-|
|-0-0-0---3-----------------------------------------|
| . . . . . . . . .
|Guitar 2
|---------------------------------------------------|
|--------------------------------------------3-5-3--|
|-------------------0---2---4-4----5----5----0--(0)-|
|-----------------------------4----4----2----4--(4)-|
|-------2---2-0-0-0---0---0---2----2----3----5--(5)-|
|-0-0-0---3-----------------------------------------|
. . . . . . . . .
Chorus
Guitar 1
|-3----3--------------0---------3----3-----------------|
|-3----1--------------1---------3----1-----------------|
|-0----2----12--14----0----7----0----2----12---5----7--|
|-0----2----10-(10)---2----5----0----2----10---5----7--|
|-2----0----8--(8)----3----3----2----0----8----3----5--|
|-3-----------------------------3----------------------|
|Guitar 2
|-3----3--------------0---------3----3-----------------|
|-3----1--------------1---------3----1-----------------|
|-0----2--------------0----7----0----2---------5----7--|
|-0----2----5---7-----2----5----0----2----5----5----7--|
|-2----0----8--(8)----3----3----2----0----3----3----5--|
|-3---------8--(8)--------------3---------1------------|
Repeat intro
Glory solomelody
Verse 2
Guitar 1 & 2
|---------------------------------------------------|
|---------------------------------------------------|
|---------------------------------------------------|
|---------------------------------------------------|
|-777777777777000000000000333333333333555555555555--|
|---------------------------------------------------|
................................................
Verse 2 cont.
Guitar 1 & 2
|----------------------------------|
|--------------------------3-3-3-3-|
|---------------------7----0-0-0-0-|
|-------------------2-5----4-4-4-4-|
|----2----0----2-0000-3----5-5-5-5-|
|-0000-2222-3333-------------------|
... ... ... ...
Tapping-stuff
Bridge to chorus
Guitar 1 & 2
|---------------------------|
|---------------------------|
|-7---------5----7----(7)\--|
|-4----5----2----4----(4)\--|
|-5----2----3----5----(5)\--|
|------3--------------------|
Repeat chorus
Before bridge
Guitar 1 & 2
|----------|
|----------|
|-4--2--4--|
|-4--2--1--|
|-2--0--2--|
|----------|
Bridge
Guitar 1 & 2
|---------------------------------------------------|
|---------------------------------------------------|
|-555555555555555577777777777777775555555544444444--|
|-222222222222222244444444444444442222222211111111--|
|-333333333333333355555555555555553333333322222222--|
|---------------------------------------------------|
Middle section
Guitar 1 & 2
|-------------------------------------------------------------------|
|-------------------------------------------------------------------|
|-------------------------------------------------------------------|
|-------------------------2-2-2-2-----------------5--4--3-----------|
|-----------------2-2-2-2-------------------------3--2--1--5--4--3--|
|-0-0-0-0-3-3-3-3-----------------0-0-0-0-3-3-3-3----------3--2--1--|
. . . . . . . . . . . . . . . . . . . . . . . . . .
Middle section cont.
Guitar 1 & 2
|------------------------------------------------------------------|
|------------------------------------------------------------------|
|------------------------------------------------------------------|
|-------------------------2-2-2-2-------------------------2-2-2-2--|
|-----------------2-2-2-2-------------------------2-2-2-2----------|
|-0-0-0-0-3-3-3-3-----------------0-0-0-0-3-3-3-3------------------|
. . . . . . . . . . . . . . . . . . . . . . . .
Middle section cont.
Guitar 1 & 2 Guitar 1
|--------------------------------------------------------|--------------------
--|
|--------------------------------------------------------|--------------------
--|
|--------------------------------------------------------|--------------------
--|
|---------------------7-7-7-7-9-9-9-9--------------------|--------------------
--|
|---------10-10-10-10-----------------------------9-9-9-9|-10-10-10-10-9-9-9-9
--|
|-8-8-8-8-----------------------------10-10-10-10--------|--------------------
--|
. . . . . . . . . . . . . . . . . . . . . . . . . . . . . .
Guitar 2
|----------------------|
|----------------------|
|----------------------|
|----------------------|
|----------------------|
|-3--3--3--3--2-2-2-2--|
. . . . . . . .
Guitar 1 & 2
|------------------------------------------------------------------|
|------------------------------------------------------------------|
|------------------------------------------------------------------|
|-------------------------2-2-2-2-------------------------2-2-2-2--|
|-----------------2-2-2-2-------------------------2-2-2-2----------|
|-0-0-0-0-3-3-3-3-----------------0-0-0-0-3-3-3-3------------------|
. . . . . . . . . . . . . . . . . . . . . . . .
Middle section cont.
Guitar 1
|----------------------------------------------------------------------|
|----------------------------------------------------------------------|
|----------------------------------------------------------------------|
|---------------------7-7-7-7-9-9-9-9-----------------4-4-4-4----------|
|---------10-10-10-10-------------------------6-6-6-6---------6~-------|
|-8-8-8-8-----------------------------7-7-7-7--------------------------|
| . . . . . . . . . . . . . . . . . . . . |
| Guitar 2 |
|----------------------------------------------------------------------|
|----------------------------------------------------------------------|
|----------------------------------------------------------------------|
|-10----------------------------------4--------------------------------|
|-7-----------------------------------6--------------------------------|
|-8-----------------------------------7--------------------------------|
Solo riff
Guitar 1 & 2 (Nicklas solo)
|-----------------------------------------------------------------------------
--------------------------|
|-----------------------------------------------------------------------------
--------------------------|
|-7----7----9----7----7----9-------------------------------7----9-------------
------------------7-------|
|-5----4----9----5----4----9-------------------------------4----9-------------
------------------4----2--|
|-3----5----7----3----5----7----3-3-3-3--3-3---3--3-3-3----5----7----3-3-3-3--
3-3---3--3-3-3----5----2--|
|-----------0--------------0------------------------------------0-------------
-----------------------0--|
. . . . . . . . . . . . . . .
. . . . .
Solo riff (Elias solo)
Guitar 1 & 2
|----------------------------------------------------------------------|
|-------------------------------------8-8-8-8-7-7-7-7------------------|
|-----------------------------9-9-9-9-----------------9-9-9-9----------|
|---------------------9-9-9-9---------------------------------9-9-9-9--|
|-7-7-7-7-10-10-10-10--------------------------------------------------|
|----------------------------------------------------------------------|
. . . . . . . . . . . . . . . . . . . . . . . . . . . . . . . .
Solo riff cont.
Guitar 1
|-------------------------------------7--------------------|
|-----------------------------------------10----8~---7~----|
|-----------------------------9-9-9-9----------------------|
|---------------------9-9-9-9------------------------------|
|-7-7-7-7-10-10-10-10--------------------------------------|
|----------------------------------------------------------|
| . . . . . . . . . . . . . . . .
|Guitar 2
|-------------------------------------10-------------------|
|-----------------------------------------13----12~--10~---|
|-----------------------------9-9-9-9----------------------|
|---------------------9-9-9-9------------------------------|
|-7-7-7-7-10-10-10-10--------------------------------------|
|----------------------------------------------------------|
. . . . . . . . . . . . . . . .
Solo riff cont. X2
Guitar 1 & 2
|------------------------------------------------------------------|
|------------------------------------------------------------------|
|------------------------------------------------------------------|
|---------------------------------------777777777777999999999999---|
|-------------10101010101010101010101010---------------------------|
|-888888888888-----------------------------------------------------|
............. . . . . . . . . . . . . ........................
Solo riff cont.
Guitar 1 & 2
|---------------------------------|
|---------------------------------|
|---------------------------------|
|-2-------------------------------|
|-2-------------------------------|
|-0----0-0-0-0-0-0-0-0-0-0-0-0-0--|
. . . . . . . . . . . . .
Fast scale before ending part
Добавлено: 17.07.2012
Другие материалы по этой песне:
  • Аккорды и текст

Страница создана 17.07.2012
http://primanota.ru/dragonland/as-madness-took-me-chords.htm
Привет, Гость.
Предлагаем пройти революционный курс по гитаре.
Подарок от PrimaNota.Ru, забирай!