PrimaNota.ru - самый крупный в мире бесплатный архив песенных текстов, аккордов, табулатур и нот


Dragonforce - Revolution Deathsquad - текст песни, таба, бас-таба, видео

Регистрация Запомнить меня
Войти через:  Facebook Google Twitter Vk Yandex Mail.ru

Dragonforce - Revolution Deathsquad - текст песни, таба, бас-таба, видео

Печатать
Просмотров: 469
Уроки эстрадного вокала в Санкт-Петербурге
Herman:
e||-------------------------------------------------------------------------
B||----------------6---5---3--1----------6---8---6--10---8---6--6---5---3--1
G||-------------------------------2-----------------------------------------
D||-----------------------------------3-------------------------------------
A||-------------------------------------------------------------------------
E||-------------------------------------------------------------------------


e||-------------------------------------------------------------------------
B||----------6---8---6--10---8----6---5---3--1----------6---8---6h8-10-8-10-
G||---2----------------------0-------------------2--------------------------
D||-------3------------------------------------------3----------------------
A||-------------------------------------------------------------------------
E||-------------------------------------------------------------------------


e||--------------------------------------------|
B||8-6-8-6h8-6---5---3--1----------6---8---6---|<---sorry that's all that I
G||-------------------------2------------------|could figure out.If you want
D||-----------------------------3--------------|more I suggest listening to 
A||--------------------------------------------|the CD and figuring it out
E||--------------------------------------------|on your own. Rock On!!!
Добавлено: 09.05.2012
Другие материалы по этой песне:

Страница создана 21.03.2012
http://primanota.ru/dragonforce/revolution-deathsquad-chords.htm
Привет, Гость.
Предлагаем пройти революционный курс по гитаре.
Подарок от PrimaNota.Ru, забирай!