PrimaNota.ru - самый крупный в мире бесплатный архив песенных текстов, аккордов, табулатур и нот


Dragonforce - Reasons To Live - текст песни, таба, видео

Регистрация Запомнить меня
Войти через:  Facebook Google Twitter Vk Yandex Mail.ru

Dragonforce - Reasons To Live - текст песни, таба, видео

Печатать
Просмотров: 144
Авторы музыки: Frédéric Leclercq, Vadim Pruzhanov, Sam Totman
Авторы текста: Herman Li, Sam Totman
Reasons to live
Brought to you by tazman70000


E||-----------------------------------------------------------|
B||-----------------------------------------------------------|
G||-----------------------------------------------------------|
D||-----------------------------------------------------------|
A||-----------------------------------------------------------|
E||-----------------------------------------------------------|

E||-----------------------------------------------------------|
B||-----------------------------------------------------------|
G||-----------------------------------------------------------|
D||-8----------------------4----------------------8-8-8-8-----|
A||-6-6-6-6-6-6-6-6-6-6-6--2-2-2-2-2-2-2-2-2-2-2--6-6-6-6-----|
E||-----------------------------------------------------------|

E||-----------------------------------------------------------|
B||-----------------------------------------------------------|
G||-----------------------------------------------------------|
D||-7---------------------------------------------------------|
A||-5~~~~~~~-----------L--------------------------------------|
E||-----------------------------------------------------------|

E||-----------------------------------------------------------|
B||-----------------------------------------------------------|
G||-----------------------------------------------------------|
D||-8----------------------4----------------------3-3--3-3----|
A||-6-6-6-6-6-6-6-6-6-6-6--2-2-2-2-2-2-2-2-2-2-2--1-1--1-1----|
E||-----------------------------------------------------------|


E||-----------------------------------------------------------|
B||-----------------------------------------------------------|
G||-----------------------------------------------------------|
D||-3-3--3-3----------------X2--------------------------------|
A||-1-1--1-1--------------------------------------------------|
E||-----------------------------------------------------------|

E||-----------------------------------------------------------|
B||-----------------------------------------------------------|
G||-----------------------------------------------------------|
D||-6---------------------6---6-6---6---6---------------------|
A||-4-4-4-4-4-4-4-4-4-4-4-4~~-4-4~~-4~~-4-4-4-4-4-4-4-4-4-4-4-|
E||-----------------------------------------------------------|

    T       T       T       T
E||-----------------------------------------------------------|
B||-----------------------------------------------------------|
G||-----------------------------------------------------------|
D||-----------------------------------------------------------|
A||--9p0h2h6--11p0h2h6--9p0h2h6--11p0h2h6—--------------------|
E||-----------------------------------------------------------|


E||-----------------------------------------------------------|
B||-----------------------------------------------------------|
G||-----------------------------------------------------------|
D||-6---------------------6---6-6---6---6---------------------|
A||-4-4-4-4-4-4-4-4-4-4-4-4~~-4-4~~-4~~-4-4-4-4-4-4-4-4-4-4-4-|
E||-----------------------------------------------------------|


E||-----------------------------------------------------------|
B||-----------------------------------------------------------|
G||-----------------------------------------------------------|
D||-2--------------------4--------6--------6------6-----------|
A||-0~~~~--------------L-2--------4--------4~~~---4~~~----L---|
E||-----------------------------------------------------------|

E||-----------------------------------------------------------|
B||-----------------------------------------------------------|
G||-----------------------------------------------------------|
D||-4---------------------------------------------------------|
A||-2~~~-----L-6----------------------7-----------------------|
E||------------4-4-4-4-4-4-4-4-4-4-4--5-5-5-5-5-5-5-5-5-5-5-5-|

E||-----------------------------------------------------------|
B||-----------------------------------------------------------|
G||-----------------------------------------------------------|
D||----------------4--4--4--4--4--4--4---------6---------9----|
A||-7--------------2--2--2--2--2--2--2---------4~~~--4-4-7~~~-|
E||-5~~~---------L--------------------------------------------|

E||-----------------------------------------------------------|
B||-----------------------------------------------------------|
G||-----------------------------------------------------------|
D||-2--------------4-----------6----------------9-------------|
A||-0~~~---------L-2~~~------L-4-4-4-4-4-4-4-4--7-7-7-7-7-7-7-|
E||-----------------------------------------------------------|


E||-----------------------------------------------------------|
B||-----------------------------------------------------------|
G||-----------------------------------------------------------|
D||-2--------------4-----------4--4--4--4--4------------------|
A||-0~~~---------L-2~~~--------2--2--2--2--2------------------|
E||-----------------------------------------------------------|


E||-----------------------------------------------------------|
B||-----------------------------------------------------------|
G||-----------------------------------------------------------|
D||-9--------------------------6------------------------------|
A||-7-7-7-7-7-7-7-7-7-7-7-7-7--4-4-4-4-4-4-4-4-4-4-4-4-4-4-4--|
E||-----------------------------------------------------------|

E||-----------------------------------------------------------|
B||-----------------------------------------------------------|
G||-----------------------------------------------------------|
D||-4----------------6--------6-------------------------------|
A||-2~~~-----------L-4~~~-----4-4-4-4-4-4-4-4-4-4-4-4-4-4-4-4-|
E||-----------------------------------------------------------|

E||-----------------------------------------------------------|
B||-----------------------------------------------------------|
G||-----------------------------------------------------------|
D||-9----------------------------4--4--4-------6--------------|
A||-7-7-7-7-7-7-7-7-7-7-7-7-7-7--2--2--2~~~--L-4~~~-----------|
E||-----------------------------------------------------------|

E||-----------------------------------------------------------|
B||-----------------------------------------------------------|
G||-----------------------------------------------------------|
D||-8--7--6--5------------------4-------------6---------------|
A||-6--5--4--3~~~---L-2-2-2-2-2-2-------------4~~~------------|
E||-----------------------------------------------------------|

E||-----------------------------------------------------------|
B||-----------------------------------------------------------|
G||-----------------------------------------------------------|
D||-8--------------------------6------------------------------|
A||-6-6-6-6-6-6-6-6-6-6-6-6-6--4-4-4-4-4-4-4-4-4-4-4-4-4-4-4--|
E||-----------------------------------------------------------|

E||-----------------------------------------------------------|
B||-----------------------------------------------------------|
G||-----------------------------------------------------------|
D||-4---------------------------------------------------------|
A||-2-2-2-2-2-2-2-2-2-2-2-2-2-2-2-2-2-2-2-2-2-2-2-2-2-2-2-2-2-|
E||-----------------------------------------------------------|

E||-----------------------------------------------------------|
B||-----------------------------------------------------------|
G||-----------------------------------------------------------|
D||-4--6--8--------------6---------------4-------------4--6---|
A||-2--4--6~~~---------L-4~~~----------L-2~~~--------L-2--4---|
E||-----------------------------------------------------------|

E||-----------------------------------------------------------|
B||-----------------------------------------------------------|
G||-----------------------------------------------------------|
D||-----------------------------------------------------------|
A||-4---------------------------------------------------------|
E||-2~~~------------------------------------------------------|

First Solo

E||-----------------------------------------------------------|
B||-11-11-11-11~~--11-9-7-/6~~--4-6-7-9-6~~--4-3-4-3----------|
G||--------------------------------------------------3~-3-3-3-|
D||-----------------------------------------------------------|
A||-----------------------------------------------------------|
E||-----------------------------------------------------------|
E||---------------4-6-8-9-8-6-8-/11~~--11-13-11-9-9-11-9-8-8--|
B||------3-4-6-8----------------------------------------------|
G||-3~~-------------------------------------------------------|
D||-----------------------------------------------------------|
A||-----------------------------------------------------------|
E||-----------------------------------------------------------|

E||-9-8-6-8~~--16(18)-19(21)-18(19)-21(23)---23-21-20---------|
B||---------------------------------------------------23-21---|
G||-----------------------------------------------------------|
D||-----------------------------------------------------------|
A||-----------------------------------------------------------|
E||-----------------------------------------------------------|

E||-----------------------------------------------------------|
B||-20-23-21-20--------------------17-18-20----------17-18-20-|
G||--------------21-20-18-17-18-20----------17-18-20----------|
D||-----------------------------------------------------------|
A||-----------------------------------------------------------|
E||-----------------------------------------------------------|

E||-6////////18~~--11///////23~~--11/////////23~~--23-23-23---|
B||-----------------------------------------------------------|
G||-----------------------------------------------------------|
D||-----------------------------------------------------------|
A||-----------------------------------------------------------|
E||-----------------------------------------------------------|

E||-21-20-18h20p18--/18-16~--/23-21-18-/23~--21-21-23-23b25---|
B||-----------------------------------------------------------|
G||-----------------------------------------------------------|
D||-----------------------------------------------------------|
A||-----------------------------------------------------------|
E||-----------------------------------------------------------|

E||-21~~--20-21-20-18-20-23-21h23p21-20-21-18-20-16-18--------|
B||-----------------------------------------------------------|
G||-----------------------------------------------------------|
D||-----------------------------------------------------------|
A||-----------------------------------------------------------|
E||-----------------------------------------------------------|

Breakdown

E||-----------------------------------------------------------|
B||-14-15-14-15-14-15-16-18--16--18--19--16-18--19--16-18-----|
G||-----------------------------------------------------------|
D||-----------------------------------------------------------|
A||-----------------------------------------------------------|
E||-----------------------------------------------------------|

E||-----------------------------------------------------------|
B||-<15>~--16--18--19--16-18--19-18-16-21~~-16--18--19--16-21-|
G||-----------------------------------------------------------|
D||-----------------------------------------------------------|
A||-----------------------------------------------------------|
E||-----------------------------------------------------------|
E||-----------------------------------------------------------|
B||-19--18—16~~--15--16--18--15-\18-\18-\18-\18---------------|
G||-----------------------------------------------------------|
D||-----------------------------------------------------------|
A||-----------------------------------------------------------|
E||-----------------------------------------------------------|

Second Solo

E||-----------------------------------------------------------|
B||-----------------------------------------------------------|
G||-10-8~-11-10-8~-8-10-8-------------------------------------|
D||-----------------------11-10-6s8~-8--6-8~--6-8-6-----------|
A||--------------------------------------------------8-6------|
E||------------------------------------------------------6-4~-|

E||-----------------------------------------------------------|
B||----------------------------9-----------------------9------|
G||------------------8----8-10---11-10-11-10-----10-11---11---|
D||-8h10p8-6-8-10-11---11--------------------11~--------------|
A||-----------------------------------------------------------|
E||-----------------------------------------------------------|

E||-----------------------------------------------------------|
B||-----------------------------------------------------------|
G||-10-8s10-8----<8>~---------------8-8------8-<8>~---8-------|
D||-----------11-------6-8-6-8-11-8----11-8--------8----------|
A||-----------------------------------------------------------|
E||-----------------------------------------------------------|

E||-----------------------------------------------------------|
B||---------------\14-13-/11-9-7-6h7p6h7-/11-9-7-6-4-2-1-2-1--|
G||-------8-10-11---------------------------------------------|
D||-<8>~~-----------------------------------------------------|
A||-----------------------------------------------------------|
E||-----------------------------------------------------------|

E||-----------------------------------------------------------|
B||-2-4-6~~---------------------------------------------------|
G||-----------------------------------------------------------|
D||-----------------------------------------------------------|
A||-----------------------------------------------------------|
E||-----------------------------------------------------------|

Third Solo
                                       T           T
E||-/21-19-/17--16-17-16-14-16-14-12--14p12p10h12h14p12p10h12-|
B||-----------------------------------------------------------|
G||-----------------------------------------------------------|
D||-----------------------------------------------------------|
A||-----------------------------------------------------------|
E||-----------------------------------------------------------|

    T           T           T           T           T
E||-14p12p10h12h16p12p10h12h14p12p10h12h14p12p10h12h14p12p10h-|
B||-----------------------------------------------------------|
G||-----------------------------------------------------------|
D||-----------------------------------------------------------|
A||-----------------------------------------------------------|
E||-----------------------------------------------------------|
       T           T           T           T           T
E||-12h16p12p10h12h14p12p10h12h14p12p10h12h14p12p10h12h16p12--|
B||-----------------------------------------------------------|
G||-----------------------------------------------------------|
D||-----------------------------------------------------------|
A||-----------------------------------------------------------|
E||-----------------------------------------------------------|

E||-/16-/17-/19-/21-------/19-21-19-17~-16-17-16-14-16-14-12--|
B||-----------------------------------------------------------|
G||-----------------------------------------------------------|
D||-----------------------------------------------------------|
A||-----------------------------------------------------------|
E||-----------------------------------------------------------|
    T           T           T           T
E||-14p12p10h12h14p12p10h12h14p12p10h12h16p12p10h12h-|
B||--------------------------------------------------|
G||--------------------------------------------------|
D||--------------------------------------------------|
A||--------------------------------------------------|
E||--------------------------------------------------|
    T           T           T           T
E||-14p12p10h12h14p12p10h12h14p12p10h12h16p12p10h12h-|
B||--------------------------------------------------|
G||--------------------------------------------------|
D||--------------------------------------------------|
A||--------------------------------------------------|
E||--------------------------------------------------|
    T           T           T           T
E||--------------------------------------------------|
B||-17p14p12h14h17p14p12h14h17p14p12h14h19p14p12h14h-|
G||--------------------------------------------------|
D||--------------------------------------------------|
A||--------------------------------------------------|
E||--------------------------------------------------|
    T           T           T           T
E||--------------------------------------------------|
B||-17p14p12h14h17p14p12h14h17p14p12h14h19p14p12h14h-|
G||--------------------------------------------------|
D||--------------------------------------------------|
A||--------------------------------------------------|
E||--------------------------------------------------|

E||-14-14----14~-14----14~----14-16-17-16-14-12------|
B||-------17--------17-----17------------------------|
G||--------------------------------------------------|
D||--------------------------------------------------|
A||--------------------------------------------------|
E||--------------------------------------------------|

    T           T           T           T
E||-14p12p10h12h14p12p10h12h14p12p10h12h16p12p10h12h-|
B||--------------------------------------------------|
G||--------------------------------------------------|
D||--------------------------------------------------|
A||--------------------------------------------------|
E||--------------------------------------------------|

    T           T           T           T
E||-14p12p10h12h14p12p10h12h14p12p10h12h16p12p10h12h-|
B||--------------------------------------------------|
G||--------------------------------------------------|
D||--------------------------------------------------|
A||--------------------------------------------------|
E||--------------------------------------------------|
           W     W     W     W
E||-17-16-17~~~--------------------------16p12----------------|
B||--------------------------------------------14-------------|
G||-----------------------------------------------13----------|
D||--------------------------------------------------14-------|
A||-----------------------------------------------------16----|
E||-----------------------------------------------------------|

E||----------12h16p12----------12h16—17-19--19p15----------15-|
B||-------14----------14----14--------------------17----17----|
G||----13----------------13--------------------------16-------|
D||-14--------------------------------------------------------|
A||-----------------------------------------------------------|
E||-----------------------------------------------------------|

E||-h17p14----------14h16p12----------12-12p9---------9h12----|
B||--------15----15----------14----14---------10---10---------|
G||-----------14----------------13---------------9------------|
D||-----------------------------------------------------------|
A||-----------------------------------------------------------|
E||-----------------------------------------------------------|

E||--------------------------------------16-14----16-14-12-17-|
B||-------------------------------17-16~-------17-------------|
G||-14-14-14-14-16-14-14-18-14-14-----------------------------|
D||-----------------------------------------------------------|
A||-----------------------------------------------------------|
E||-----------------------------------------------------------|

Fourth Solo

E||-----------------------------------------------------------|
B||-------10-8-10~--12-10-12~--14-15-17~-17-17-17-15-14-12-14-|
G||-9~-9~-----------------------------------------------------|
D||-----------------------------------------------------------|
A||-----------------------------------------------------------|
E||-----------------------------------------------------------|

E||-----------------9-10-12-14--14-16-17--/14-12-10-12~-9-7---|
B||-12~-----9-10~~--------------------------------------------|
G||------11---------------------------------------------------|
D||-----------------------------------------------------------|
A||-----------------------------------------------------------|
E||-----------------------------------------------------------|

Fifth Solo

    T        T        T        T        T        T        T
E||-12p9p5h9h12p9p5h9h12p9p5h9h14p9p5h9h12p9p5h9h12p9p5h9h12--|
B||-----------------------------------------------------------|
G||-----------------------------------------------------------|
D||-----------------------------------------------------------|
A||-----------------------------------------------------------|
E||-----------------------------------------------------------|
           T        T        T        T        T        T
E||-p9p5h9h14p9p5h9h12p9p5h9h12p9p5h9h12p9p5h9h14p9p5h9h12p9--|
B||-----------------------------------------------------------|
G||-----------------------------------------------------------|
D||-----------------------------------------------------------|
A||-----------------------------------------------------------|
E||-----------------------------------------------------------|
         T        T        T
E||-p5h9h12p9p5h9h12p9p5h9h14---------------------------------|
B||-----------------------------------------------------------|
G||-----------------------------------------------------------|
D||-----------------------------------------------------------|
A||-----------------------------------------------------------|
E||-----------------------------------------------------------|
    T        T        T        T        T        T        T
E||-----------------------------------------------------------|
B||-12p9p5h9h12p9p5h9h12p9p5h9h14p9p5h9h12p9p5h9h12p9p5h9h12--|
G||-----------------------------------------------------------|
D||-----------------------------------------------------------|
A||-----------------------------------------------------------|
E||-----------------------------------------------------------|
           T        T        T        T        T        T
E||-----------------------------------------------------------|
B||-p9p5h9h14p9p5h9h12p9p5h9h12p9p5h9h12p9p5h9h14p9p5h9h12p9--|
G||-----------------------------------------------------------|
D||-----------------------------------------------------------|
A||-----------------------------------------------------------|
E||-----------------------------------------------------------|
         T        T        T
E||-----------------------------------------------------------|
B||-p5h9h12p9p5h9h12p9p5h9h14---------------------------------|
G||-----------------------------------------------------------|
D||-----------------------------------------------------------|
A||-----------------------------------------------------------|
E||-----------------------------------------------------------|

                                                 T
E||-16p12----------------------------------12h16h19p16p12-----|
B||-------14----------------------------14----------------14--|
G||----------14p13----------------13h14-----------------------|
D||----------------14----------14-----------------------------|
A||-------------------16p12h16--------------------------------|
E||-----------------------------------------------------------|
                                        T
E||-------------------------------12h16h17p16p12--------------|
B||----------------------------14----------------14-----------|
G||-14p13----------------13h14----------------------14p13-----|
D||-------14----------14----------------------------------14--|
A||----------16p12h16-----------------------------------------|
E||-----------------------------------------------------------|

E||------------12~--17~--19~--19b21--17--14-------------------|
B||-----------------------------------------------------------|
G||-----------------------------------------------------------|
D||-----------------------------------------------------------|
A||-16p12-----------------------------------------------------|
E||-----------------------------------------------------------|

Keyboard Solo

And that's all I have for now. I am currently working on the harmony solo of the sixth
and I'll put it up as soon as I'm finished. This is my first tab and in my eyes this is
of the most epic songs of the century.

DRAGONFORCE ALL THE WAY!!!
Добавлено: 22.02.2012
Другие материалы по этой песне:

Страница создана 22.02.2012
http://primanota.ru/dragonforce/reasons-to-live-chords.htm
Привет, Гость.
Предлагаем пройти революционный курс по гитаре.
Подарок от PrimaNota.Ru, забирай!