PrimaNota.ru - самый крупный в мире бесплатный архив песенных текстов, аккордов, табулатур и нот


Dragonforce - Power Of The Ninja Sword - таба, видео

Регистрация Запомнить меня
Войти через:  Facebook Google Twitter Vk Yandex Mail.ru

Dragonforce - Power Of The Ninja Sword - таба, видео

Печатать
Просмотров: 153
Уроки эстрадного вокала в Санкт-Петербурге
intro

     Q       W                   W                   E.   E.   E  E.  E.  E
E||-------|-------------------|-------------------|--------------------------|
B||-------|-------------------|-------------------|--8b---8b---8--7---8---7--|
G||-------|-------------------|-------------------|--------------------------|
D||-------|-------------------|-------------------|--------------------------|
A||-------|-------------------|-------------------|--------------------------|
E||-------|-------------------|-------------------|--------------------------|


  E.   E.  E  Q     E  E     E.  E.  E  E.  E.  E     E.   E.  E  Q     E   E
--------------------------|------------------------|------------------------7--|
--6b-------------------7--|--8---7--------------7--|--6b----------------8b-----|
-------9---7--7~----9-----|----------7--7---9------|-------9---7--9~-----------|
--------------------------|------------------------|---------------------------|
--------------------------|------------------------|---------------------------|
--------------------------|------------------------|---------------------------|


  E.    E.  E  E.   E.  E     E.    E.   E   Q       E  E
--9b---10---9--7--------7--|--9b---10---12--12b~--------9--|
-------------------10------|------------------------12-----|
---------------------------|-------------------------------|
---------------------------|-------------------------------|
---------------------------|-------------------------------|
---------------------------|-------------------------------|


  E.    E.   E  E.    E.   E      E.    E.   E   E.    E.  E
--9b---10-------9b---12---14--|--12b---12---10--10b---10---9--|
------------12----------------|-------------------------------|
------------------------------|-------------------------------|
------------------------------|-------------------------------|
------------------------------|-------------------------------|
------------------------------|-------------------------------|


   Q.       E  H           W                   W
--10S~------2-----------|-------------------|-------------------|
------------------------|-------------------|-------------------|
------------------------|-------------------|-------------------|
------------------------|-------------------|-------------------|
------------------------|-------------------|-------------------|
------------------------|-------------------|-------------------|







  W                   W                   H         Q     Q
-------------------|-------------------|------------------------|
-------------------|-------------------|------------------------|
-------------------|-------------------|-----------14S----9S----|
-------------------|-------------------|-----------14S----7S----|
-------------------|-------------------|------------------------|
-------------------|-------------------|------------------------|


  S T T T T S T T T T S T T S T T T T S T T T T S T T
------------------------------------------------------|
------------------------------------------------------|
------------------------------------------------------|
--4---------4---------4-----4---------4---------4-----|
--2-2-2-2-2-2-2-2-2-2-2-2-2-2-2-2-2-2-2-2-2-2-2-2-2-2-|
------------------------------------------------------|


  S T T T T S T T T T S T T S T T T T S T T T T S T T
------------------------------------------------------|
------------------------------------------------------|
------------------------------------------------------|
------------------------------------------------------|
--5---------5---------5-----5---------5---------5-----|
--3-3-3-3-3-3-3-3-3-3-3-3-3-3-3-3-3-3-3-3-3-3-3-3-3-3-|


  S T T T T S T T T T S T T S T T T T S T T T T S T T
------------------------------------------------------|
------------------------------------------------------|
------------------------------------------------------|
--4---------4---------4-----4---------4---------4-----|
--2-2-2-2-2-2-2-2-2-2-2-2-2-2-2-2-2-2-2-2-2-2-2-2-2-2-|
------------------------------------------------------|


  S T T T T S T T T T S T T E.  E.  E     H        H
---------------------------------------|--------------------|
---------------------------------------|--------------------|
---------------------------------------|--------------------|
--7---------7---------7-----7---7---7--|--5--------5--------|
--5-5-5-5-5-5-5-5-5-5-5-5-5-7---7---7--|--5--------5--------|
----------------------------5---5---5--|--3--------3--------|


  S T T T T S S T T T T S S T T S E  S E      H        H
-------------------------------------------|--------------------|
-------------------------------------------|--------------------|
-------------------------------------------|--------------------|
----------------------------------9----9---|--5--------5--------|
--9---------7-9---------7-9-----7-9--9-9S--|--5--------5--------|
--7-7-7-7-7-5-7-7-7-7-7-5-7-7-7-5-7--7-7S--|--3--------3--------|


  H        H           W                   W
--------------------|-------------------|-------------------|
--------------------|-------------------|-------------------|
--------------------|--7----------------|-------------------|
--7--------7--------|--7----------------|--5----------------|
--7--------7--------|--5----------------|--5----------------|
--5--------5--------|-------------------|--3----------------|


  W                   W                   H        H
-------------------|-------------------|--------------------|
-------------------|-------------------|--------------------|
--7----------------|-------------------|--4-----------------|
--7----------------|--5----------------|--4--------5--------|
--5----------------|--5----------------|--2--------5--------|
-------------------|--3----------------|-----------3--------|


  H        H           H        H           H        E  E  E  E
--------------------|--------------------|-----------------------|
--------------------|--------------------|-----------------------|
--4--------7--------|--------------------|--7--------7-----7--6--|
--4--------7--------|--5--------7--------|--7--------7-----7--6--|
--2--------5--------|--5--------7--------|--5--------5-----5--4--|
--------------------|--3--------5--------|-----------------------|


  E  E  Q    H           W                   W
----------------------|-------------------|-------------------|
----------------------|-------------------|-------------------|
--4-------------------|-------------------|-------------------|
--4-------------------|-------------------|-------------------|
--2-------------------|-------------------|-------------------|
----------------------|-------------------|-------------------|


  H         Q     Q        S T T T T S T T T T S T T S T T T T S T T T T S T T
------------------------|------------------------------------------------------|
------------------------|------------------------------------------------------|
-----------14S----9S----|------------------------------------------------------|
-----------14S----7S----|--4---------4---------4-----4---------4---------4-----|
------------------------|--2-2-2-2-2-2-2-2-2-2-2-2-2-2-2-2-2-2-2-2-2-2-2-2-2-2-|
------------------------|------------------------------------------------------|


  S T T T T S T T T T S T T S T T T T S T T T T S T T
------------------------------------------------------|
------------------------------------------------------|
------------------------------------------------------|
------------------------------------------------------|
--5---------5---------5-----5---------5---------5-----|
--3-3-3-3-3-3-3-3-3-3-3-3-3-3-3-3-3-3-3-3-3-3-3-3-3-3-|


  S T T T T S T T T T S T T S T T T T S T T T T S T T
------------------------------------------------------|
------------------------------------------------------|
------------------------------------------------------|
--4---------4---------4-----4---------4---------4-----|
--2-2-2-2-2-2-2-2-2-2-2-2-2-2-2-2-2-2-2-2-2-2-2-2-2-2-|
------------------------------------------------------|


  S T T T T S T T T T S T T E.  E.  E     H        H
---------------------------------------|--------------------|
---------------------------------------|--------------------|
---------------------------------------|--------------------|
--7---------7---------7-----7---7---7--|--5--------5--------|
--5-5-5-5-5-5-5-5-5-5-5-5-5-7---7---7--|--5--------5--------|
----------------------------5---5---5--|--3--------3--------|


  S T T T T S S T T T T S S T T S E  S E      H        H
-------------------------------------------|--------------------|
-------------------------------------------|--------------------|
-------------------------------------------|--------------------|
----------------------------------9----9---|--5--------5--------|
--9---------7-9---------7-9-----7-9--9-9S--|--5--------5--------|
--7-7-7-7-7-5-7-7-7-7-7-5-7-7-7-5-7--7-7S--|--3--------3--------|


  H        H           W                   W
--------------------|-------------------|-------------------|
--------------------|-------------------|-------------------|
--------------------|--7----------------|-------------------|
--7--------7--------|--7----------------|--5----------------|
--7--------7--------|--5----------------|--5----------------|
--5--------5--------|-------------------|--3----------------|


  W                   W                   H        H
-------------------|-------------------|--------------------|
-------------------|-------------------|--------------------|
--7----------------|-------------------|--4-----------------|
--7----------------|--5----------------|--4--------5--------|
--5----------------|--5----------------|--2--------5--------|
-------------------|--3----------------|-----------3--------|


  H        H           H        H           H        E  E  E  E
--------------------|--------------------|-----------------------|
--------------------|--------------------|-----------------------|
--4--------7--------|--------------------|--7--------7-----7--6--|
--4--------7--------|--5--------7--------|--7--------7-----7--6--|
--2--------5--------|--5--------7--------|--5--------5-----5--4--|
--------------------|--3--------5--------|-----------------------|


  S S S S S S S S S S S S S S S S    S S S S S S S S S S S S S S S S
----------------------------------|----------------------------------|
--0-3-0-3-0-3-0-3-0-3-0-3-0-3-0-3-|----------------------------------|
--x-x-x-x-x-x-x-x-x-x-x-x-x-x-x-x-|--0-7-0-7-0-7-0-7-0-7-0-7-0-7-0-7-|
----------------------------------|--x-x-x-x-x-x-x-x-x-x-x-x-x-x-x-x-|
----------------------------------|----------------------------------|
----------------------------------|----------------------------------|


  S S S S S S S S S S S S S S S S    S S S S S S S S S S S S S S S S
----------------------------------|----------------------------------|
----------------------------------|--0-3-0-3-0-3-0-3-0-3-0-3-0-3-0-3-|
----6---6---6---6---6---6---6---6-|--x-x-x-x-x-x-x-x-x-x-x-x-x-x-x-x-|
--7-x-7-x-7-x-7-x-7-x-7-x-7-x-7-x-|----------------------------------|
--x---x---x---x---x---x---x---x---|----------------------------------|
----------------------------------|----------------------------------|


  S S S S S S S S S S S S S S S S    S S S S S S S S S S S S S S S S
----------------------------------|----------------------------------|
--0-7-0-7-0-7-0-7-0-7-0-7-0-7-0-7-|----------------------------------|
--x-x-x-x-x-x-x-x-x-x-x-x-x-x-x-x-|--0-7-0-7-0-7-0-7-0-7-0-7-0-7-0-7-|
----------------------------------|--x-x-x-x-x-x-x-x-x-x-x-x-x-x-x-x-|
----------------------------------|----------------------------------|
----------------------------------|----------------------------------|


  S S S S S S S S S S S S S S S S    S S S S S S S S S S S S S S S S
----------------------------------|----2---2---2---2---2---2---2---2-|
----------------------------------|--0---0---0---0---0-L-0-L-0-L-0-L-|
----9---9---9---9---9---9---9---9-|----------------------------------|
--7-x-7-x-7-x-7-x-7-x-7-x-7-x-7-x-|----------------------------------|
--x---x---x---x---x---x---x---x---|----------------------------------|
----------------------------------|----------------------------------|


solo

  W                   H        Q    S S  S S
-------------------|-----------------------5-|
-------------------|------------------3b-7---|
-------------------|-------------------------|
-------------------|-------------------------|
-------------------|-------------------------|
-------------------|-------------------------|


  S T T S E  S S  S T   T  T   T S E   S S S
--7-7-7-7-7--7-7-----------------------------|
--7-7-7-7-7------10--------------------------|
--------------------9h-11p-9h-11-9-7~----7-9-|
---------------------------------------9-----|
---------------------------------------------|
---------------------------------------------|


  T   T  T  T S E   S S S T  T  T T T  T   S T  T  T  T T  T  S
---------------------------------------------7h-9p-7----9p-7p-5-|
--------------------------7h-8p-7---7h-8h-10---------10---------|
--9h-11p-9p-7---7~--7-7-9---------9-----------------------------|
--------------9-------------------------------------------------|
----------------------------------------------------------------|
----------------------------------------------------------------|


                        T            T     T     T             T
   S  E   E    S  S  S  T  T  T   T  T  T  T  T  T  T   T   T  T  T   T   T
--10-12--10b--10----10-12-10p-7h-10-12-10-14-10-15-14p-12h-14-15-14p-12h-14-|
-----------------12---------------------------------------------------------|
----------------------------------------------------------------------------|
----------------------------------------------------------------------------|
----------------------------------------------------------------------------|
----------------------------------------------------------------------------|


   T         T         T         T         T         T         T         T
   |---3--|  |---3--|  |---3--|  |---3--|  |---3--|  |---3--|  |---3--|
   T  T   T  T  T   T  T  T   T  T  T   T  T  T   T  T  T   T  T  T   T  T  T  E
--21-17p-12-21-17p-12-21-17p-12-22-17p-12-21-17p-12-21-17p-12-19-17p-12-19-17-19-|
---------------------------------------------------------------------------------|
---------------------------------------------------------------------------------|
---------------------------------------------------------------------------------|
---------------------------------------------------------------------------------|
---------------------------------------------------------------------------------|


   Q.      H        E     W                   W
--22~------------------|-------------------|-------------------|
-----------------------|-------------------|-------------------|
-----------------------|-------------------|-------------------|
-----------------------|-------------------|-------------------|
-----------------------|-------------------|-------------------|
-----------------------|-------------------|-------------------|






pre-chorus



  H        H           S T T T T S S T T T T S S T T S E  S E
--------------------|-------------------------------------------|
--------------------|-------------------------------------------|
--------------------|-------------------------------------------|
--5--------5--------|----------------------------------9----9---|
--5--------5--------|--9---------7-9---------7-9-----7-9--9-9S--|
--3--------3--------|--7-7-7-7-7-5-7-7-7-7-7-5-7-7-7-5-7--7-7S--|


  H        H           H        H           W
--------------------|--------------------|-------------------|
--------------------|--------------------|-------------------|
--------------------|--------------------|--7----------------|
--5--------5--------|--7--------7--------|--7----------------|
--5--------5--------|--7--------7--------|--5----------------|
--3--------3--------|--5--------5--------|-------------------|


  W                   W                   W
-------------------|-------------------|-------------------|
-------------------|-------------------|-------------------|
-------------------|--7----------------|-------------------|
--5----------------|--7----------------|--5----------------|
--5----------------|--5----------------|--5----------------|
--3----------------|-------------------|--3----------------|


  H        H           H        H           H        H
--------------------|--------------------|--------------------|
--------------------|--------------------|--------------------|
--4-----------------|--4--------7--------|--------------------|
--4--------5--------|--4--------7--------|--5--------7--------|
--2--------5--------|--2--------5--------|--5--------7--------|
-----------3--------|--------------------|--3--------5--------|


  H        H           H        H           H        S Q     S S S
--------------------|--------------------|-------------------------|
--------------------|--------------------|-------------------------|
--7--------7--------|--------------------|--7--------7-7S----L-2---|
--7--------7--------|--5--------7--------|--7--------7-7S----L-2---|
--5--------5--------|--5--------7--------|--5--------5-5S----L-0---|
--------------------|--3--------5--------|-------------------------|


  W
-------------------||
-------------------||
-------------------||
-------------------||
-------------------||
-------------------||
Добавлено: 12.09.2013
Другие материалы по этой песне:
  • Аккорды и текст

Страница создана 12.09.2013
http://primanota.ru/dragonforce/power-of-the-ninja-sword-chords.htm
Привет, Гость.
Предлагаем пройти революционный курс по гитаре.
Подарок от PrimaNota.Ru, забирай!