PrimaNota.ru - самый крупный в мире бесплатный архив песенных текстов, аккордов, табулатур и нот


Dragonforce - Power And Glory - аккорды и текст, видео

Регистрация Запомнить меня
Войти через:  Facebook Google Twitter Vk Yandex Mail.ru

Dragonforce - Power And Glory - аккорды и текст, видео

Печатать
Просмотров: 107
Power And Glory
Dragonforce
Intro Part 1: C#m B x4 
 
E|----------------------------------|
B|7/9-9-9-7-9----6/9-7-7-7-5-7-5----| 
G|------------6-9----------------8-4|
D|----------------------------------|
A|----------------------------------|
E|----------------------------------| 

E|----------------------------------| 
B|6/9-9-9-7-9----6/9-7-7-7-5-9/12-9-| 
G|------------6-9-------------------|
D|----------------------------------|
A|----------------------------------|
E|----------------------------------| 
 
E|----------------------------------------------------------------------| 
B|14-14-14-14-14-14-14-12-14-----12/14-12-12-12-12-12-12-12-10-12-10----| 
G|--------------------------11-14-----------------------------------13-9|
D|----------------------------------------------------------------------|
A|----------------------------------------------------------------------|
E|----------------------------------------------------------------------| 

E|-------------------------------------------------------------------------|
B|12/14-14-14-14-14-14-14-12-14-----12/14-12-12-12-12-12-12-12-10-12-10----| 
G|-----------------------------11-14-----------------------------------13-9| 
D|-------------------------------------------------------------------------|
A|-------------------------------------------------------------------------|
E|-------------------------------------------------------------------------|
 
Part 2
C#m C#m C#m A B  
 
C#m C#m C#m A B-B B-B-B 

[Verse]
C#m 
A black cloud now falls on this city 
B 
But under the lights 
F#m                                         A 
Been searching for answers but this time, you 
                B 
You feel so alive 
C#m 
Just free your own mind, it's not easy 
B 
To give all you've got 
F#m                                             A 
'Cause no one can stop you from climbing this mountain 
                B 
And making the top 

[Prechorus] 
F#m                  B 
Run, strive for the fame 
             G#m                C#m 
Part of the game, that we play time and again 
F#m                              G#m 
It's up to you to break these chains 

[Chorus]
C#m             A B 
Reasons to live, reasons to die 
 A                       B 
Live for the power and glory 
C#m             B 
Never give up, reach for the top 
F#m                     A             B 
Find your own path and tonight we'll make it 
C#m             A B 
Reasons to live, reasons to die 
A                        B 
Live for the power and glory 
C#m             B 
Never give up, reach for the top 
F#m                     A             B 
Find your own path and tonight we'll make it 
     C#m 
All right 
 
[Interlude]x4 
C#m 
 
C#m               
Now everyone wants to be something 
B 
A feeling so strong 
F#m 
But only one thing really matters 
A             B 
A place to belong 
 
C#m 
Don't spend all your days in the shadows 
B 
You're not on your own 
F#m 
But just keep on fighting 
A                                              B 
'Cause you'll never know you've got 'til it's gone 
 
F#m                  B 
Run, strive for the fame 
             G#m                C#m 
Part of the game, that we play time and again 
F#m                              G#m 
It's up to you to break these chains 
 
 
C#m             A B 
Reasons to live, reasons to die 
 A                       B 
Live for the power and glory 
C#m             B 
Never give up, reach for the top 
F#m                     A             B 
Find your own path and tonight we'll make it 
C#m             A B 
Reasons to live, reasons to die 
A                        B 
Live for the power and glory 
C#m             B 
Never give up, reach for the top 
F#m                     A             B 
Find your own path and tonight we'll make it 
     C#m 
All right 
 
[Solo] 
C#m A-B A-C#m A-B Bbm F# G# D#m F# G# Bbm F# G# D#m F# G# C#m A B C#m G#m A C#m A B F#m G#m 
 
C#m             A B 
Reasons to live, reasons to die 
 A                       B 
Live for the power and glory 
 
D#m             B C# 
Reasons to live, reasons to die 
 B                       C# 
Live for the power and glory 
D#m             C# 
Never give up, reach for the top 
G#m                     B             C# 
Find your own path and tonight we'll make it 
D#m             B C# 
Reasons to live, reasons to die 
B                        C# 
Live for the power and glory 
D#m             C# 
Never give up, reach for the top 
G#m                     B             C# 
Find your own path and tonight we'll make it 
 
 
D#m             B C# 
Reasons to live, reasons to die 
 B                       C# 
Live for the power and glory 
D#m             C# 
Never give up, reach for the top 
G#m                     B             C# 
Find your own path and tonight we'll make it 
       D#m F#m  
All right 
G#m            Bbm      B             C# 
Find your own path and tonight we'll make it 
       D#m  
All right 
 
Добавлено: 26.02.2016
Другие материалы по этой песне:
  • Аккорды и текст

Страница создана 26.02.2016
http://primanota.ru/dragonforce/power-and-glory-chords.htm
Привет, Гость.
Предлагаем пройти революционный курс по гитаре.
Подарок от PrimaNota.Ru, забирай!