PrimaNota.ru - самый крупный в мире бесплатный архив песенных текстов, аккордов, табулатур и нот


Dragonforce - Holding On - текст песни, таба, видео

Регистрация Запомнить меня
Войти через:  Facebook Google Twitter Vk Yandex Mail.ru

Dragonforce - Holding On - текст песни, таба, видео

Печатать
Просмотров: 279
Авторы музыки: Sam Totman
Авторы текста: Herman Li, Sam Totman
top line=top string and the numbers are the frets in case you didn't know how to 
read a tab;)...enjoy
     |-----------------------7-5-3-0-3-5------7-5-3-0-3-5------7-5-3-0-3-5---|
     |---17------------------------------5----------------3------------------|
     |---------------------------------------------------------------------5-|
     |-----------------------------------------------------------------------|
     |-----------------------------------------------------------------------|
     |-----------------------------------------------------------------------|

     5-7-5-3-5-7-5-3-4-------6-------7-5-3-0-3-5------7-5-3-0-3-5-----------|
     ---------------------------------------5---------------------3---------|
     -----------------------------------------------------------------------|
     -----------------------------------------------------------------------|
     -----------------------------------------------------------------------|
     -----------------------------------------------------------------------|

     ----------------------------7-5-3-0-3-5------7-5-3-0-3-5------7-5-3-0-3-|
     -0-3-5-----5-----3-5-7-8----------------5----------------3--------------|
     ------------------------------------------------------------------------|
     ------------------------------------------------------------------------|
     ------------------------------------------------------------------------|
     ------------------------------------------------------------------------|

     ------5-7-5-3-5-7-5-3-4-------6-------7-5-3-0-7-5-3-0-7-5-3-0-7-5-3-0-7-|
     ------------------------------------------------------------------------|
     -5----------------------------------------------------------------------|
     ------------------------------------------------------------------------|
     ------------------------------------------------------------------------|
     ------------------------------------------------------------------------|

     -5-3-0-7-5-3-0-7-5-3-0-7-5-3-0-7-5-3-0-7-5-3-0-7-5-3-0-7-5-3-0-7-5-3-0-|
     -----------------------------------------------------------------------|
     -----------------------------------------------------------------------|
     -----------------------------------------------------------------------|
     -----------------------------------------------------------------------|
     -----------------------------------------------------------------------|

     -7-5-3-0-7-5-3-0-7-5-3-0-7-5-3-0-7-5-3-0-------------------------------|
     -----------------------------------------------------------------------|
     -----------------------------------------------------------------------|
     -----------------------------------------------------------------------|
     -----------------------------------------7-----------------------------|
     -----------------------------------------0-----------------------------|
Добавлено: 17.09.2013
Другие материалы по этой песне:
  • Аккорды и текст

Страница создана 20.07.2013
http://primanota.ru/dragonforce/holding-on-chords.htm
Привет, Гость.
Предлагаем пройти революционный курс по гитаре.
Подарок от PrimaNota.Ru, забирай!