PrimaNota.ru - самый крупный в мире бесплатный архив песенных текстов, аккордов, табулатур и нот


Dragon Heart - Gods Of Ice - текст песни, таба, бас-таба, видео

Регистрация Запомнить меня
Войти через:  Facebook Google Twitter Vk Yandex Mail.ru

Dragon Heart - Gods Of Ice - текст песни, таба, бас-таба, видео

Печатать
Просмотров: 87
As recorded by Dragonheart
(From the 2000 Album UNDERDARK)

Transcribed by maximushyrule  	
 

Music by Dragonheart

Gtr I (E A D G B E) - 'Rhythm'
Gtr II (E A D G B E) - 'Lead'
Gtr III (E A D G B E) - 'Vocals'

  Q=140
 4/4                       6/4
  Gtr I
  Q  S S S S +E  S S S E.   W                               +H
|-------------------------|----------------------------------------------------|
|-------------------------|----------------------------------------------------|
|----2-2-2-2-(2)-2-2-2-2--|-4-------------------------------(4)----------------|
|----0-0-0-0-(0)-0-0-0-0--|-2-------------------------------(2)----------------|
|-------------------------|----------------------------------------------------|
|-------------------------|----------------------------------------------------|
|
| Gtr II
| W                         S S S S S S S S S S S S S S S S  S  S S S S S S S
|-------------------------|-3-3-3-5-5-5-7-7-7-5-5-5-3-3-3-5--5--5-7-7-7-5-5-5--|
|-------------------------|-5-5-5-7-7-7-8-8-8-7-7-7-5-5-5-7--7--7-8-8-8-7-7-7--|
|-------------------------|----------------------------------------------------|
|-------------------------|----------------------------------------------------|
|-------------------------|----------------------------------------------------|
|-------------------------|----------------------------------------------------|


  H.                        Q.             E.     E.
|--------------------------------------------------------|
|--------------------------------------------------------|
|---------------------------2--------------2------2------|
|-5-------------------------0--------------0------0------|
|-3------------------------------------------------------|
|--------------------------------------------------------|
|
| S  S S S S S S S S S S S  S   S  S S S S S  S S S  S S
|--------5-5-5-7-7-7-5-5-5--8---8--8-7-7-7-5--5-5-3--3-3-|
|-8--8-8-7-7-7-8-8-8-7-7-7-10--10-10-8-8-8-7--7-7-5--5-5-|
|-5--5-5-------------------------------------------------|
|--------------------------------------------------------|
|--------------------------------------------------------|
|--------------------------------------------------------|


  W                               +H
|---------------------------------------------------|
|---------------------------------------------------|
|-4-------------------------------(4)---------------|
|-2-------------------------------(2)---------------|
|---------------------------------------------------|
|---------------------------------------------------|
|
| S S S S S S S S S S S S S S S S  S  S S S S S S S
|-3-3-3-5-5-5-7-7-7-5-5-5-3-3-3-5--5--5-7-7-7-5-5-5-|
|-5-5-5-7-7-7-8-8-8-7-7-7-5-5-5-7--7--7-8-8-8-7-7-7-|
|---------------------------------------------------|
|---------------------------------------------------|
|---------------------------------------------------|
|---------------------------------------------------|


  H.                       S S S E. S S S E.
|--------------------------------------------|
|--------------------------------------------|
|--------------------------2-2-2-2--2-2-2-2--|
|-5------------------------0-0-0-0--0-0-0-0--|
|-3------------------------------------------|
|--------------------------------------------|
|
| S  S S S S S S S S S S S S S S E. S S S E.
|--------5-5-5-7-7-7-5-5-5-------------------|
|-8--8-8-7-7-7-8-8-8-7-7-7-7-7-7-7--7-7-7-7--|
|-5--5-5-------------------7-7-7-7--7-7-7-7--|
|--------------------------------------------|
|--------------------------------------------|
|--------------------------------------------|


  E   S  S  S  S  S  S  S  S  S  S S S S  S  S  S  S  S  S  E     S
|-------------------------------------------------------------------|
|-------------------------------------------------------------------|
|-------------------------------------------------------------------|
|-2---2--2--2--2--2--2--2--2--2--2-2-2-2--2--2--2--2--2--2--2S====0-|
|-------------------------------------------------------------------|
|-------------------------------------------------------------------|
|
| S S S  S  S  S  S  S  S  S  S  S S S S  S  S  S  S  S  S  S  S  S
|-------------------------------------------------------------------|
|-8-8-8-10-10-10-12-12-12-10-10-10-8-8-8-10-10-10-12-12-12-10-10-10-|
|-9-9-9-11-11-11-12-12-12-11-11-11-9-9-9-11-11-11-12-12-12-11-11-11-|
|-------------------------------------------------------------------|
|-------------------------------------------------------------------|
|-------------------------------------------------------------------|


   E     S  S  S  S  S  S  S  S  S  S  Q.             E.     E.
|-------------------------------------------------------------------|
|-------------------------------------------------------------------|
|--------------------------------------2--------------2------2------|
|--------------------------------------0--------------0------0------|
|--3-----3--3--3--3--3--3--3--3--3--3-------------------------------|
|-------------------------------------------------------------------|
|
|  S  S  S  S  S  S  S  S  S  S  S  S  S   S  S S S S S  S S S  S S
|--------------------------------------8---8--8-7-7-7-5--5-5-3--3-3-|
|----------10-10-10-12-12-12-10-10-10-10--10-10-8-8-8-7--7-7-5--5-5-|
|-12-12-12-11-11-11-12-12-12-11-11-11-------------------------------|
|-10-10-10----------------------------------------------------------|
|-------------------------------------------------------------------|
|-------------------------------------------------------------------|


  E   S S S S S S S S S S S S S S S S S S S E   S
|-------------------------------------------------|
|-------------------------------------------------|
|-------------------------------------------------|
|-2---2-2-2-2-2-2-2-2-2-2-2-2-2-2-2-2-2-2-2-2S==0-|
|-------------------------------------------------|
|-------------------------------------------------|
|
| S S S S S S S S S S S S S S S S S S S S S S S S
|-3-3-3-5-5-5-7-7-7-5-5-5-3-3-3-5-5-5-7-7-7-5-5-5-|
|-5-5-5-7-7-7-8-8-8-7-7-7-5-5-5-7-7-7-8-8-8-7-7-7-|
|-------------------------------------------------|
|-------------------------------------------------|
|-------------------------------------------------|
|-------------------------------------------------|


  E   S S S S S S S S S S S S S E. S S S E.
|-------------------------------------------|
|-------------------------------------------|
|-------------------------2-2-2-2--2-2-2-2--|
|-------------------------0-0-0-0--0-0-0-0--|
|-3---3-3-3-3-3-3-3-3-3-3-------------------|
|-------------------------------------------|
|
| S S S S S S S S S S S S S S S E. S S S E.
|-------5-5-5-7-7-7-5-5-5-------------------|
|-8-8-8-7-7-7-8-8-8-7-7-7-7-7-7-7--7-7-7-7--|
|-5-5-5-------------------7-7-7-7--7-7-7-7--|
|-------------------------------------------|
|-------------------------------------------|
|-------------------------------------------|


  Q=74
 2/8  4/4
  W    S S S S S S S S S  S S S S S S S
|----|-----------------------------------|
|----|-----------------------------------|
|----|-------------0-0--------------0-0--|
|----|---------4-4-4-4-4--------4-4-4-4--|
|----|-2-2-2-2------------2-2-2----------|
|----|-----------------7-----------------|
|
|      Gtr III
| W    Q       E   S S Q.           E
|----|-----------------------------------|
|----|---------2---3-2-3-----------------|
|----|-4---------------------------------|
|----|-----------------------------------|
|----|-----------------------------------|
|----|-----------------------------------|


  S S S S  S S  S S S  S S S S S S S   S S S S S S S S S S S S S S S  S
|------------------------------------|----------------------------------|
|------------------------------------|----------------------------------|
|-0---------------0------------------|----------------------------------|
|-4-5-5-5--7-7--7-4-4--------------0-|---------------0-0----------------|
|---------10---10---5--5-5-5-4-4-5-4-|-2-2-2-2-4-4-5-4-4-5-5-5-5-5-7--9-|
|------------------------------------|---------7---------------------12-|
|
| E   E    E    E   E.     S Q         Q       E   S S Q       E   S  S
|-------------------2----------------|----------------------------------|
|-3---3----5----3----------5-5-------|---------2---3-2-3-------3---5--7-|
|------------------------------------|-4--------------------------------|
|------------------------------------|----------------------------------|
|------------------------------------|----------------------------------|
|------------------------------------|----------------------------------|


   S  S  S  S  S  S S  S  S S S S S S S S
|-----------------------------------------|
|-----------------------------------------|
|-----------------------------------------|
|---------------------------------0-0-0-0-|
|-10-10-10-10-10-10-9--9--7-7-7-7-4-4-4-4-|
|-14----------14------10-10-----9---------|
|
|  Q           E    S  S  E   E   E   E
|-----------------------------------------|
|--8-----------8----7-----5---3---2-------|
|----------------------7------------------|
|-----------------------------------------|
|-----------------------------------------|
|-----------------------------------------|


  S  S S S S S S S  S  S  S S  S  S S S
|---------------------------------------|
|---------------------------------------|
|--------------0-0------------------0-0-|
|----------4-4-4-4--4----------4--4-4-4-|
|-4--2-2-2-------------2--2-2-----------|
|-7-----------------7-------------------|
|
| E.     S E   S S +S  E.     +S  E   S
|---------------------------------------|
|----------2---3-2-(2)-3------(3)-----3-|
|-4------4------------------------------|
|---------------------------------------|
|---------------------------------------|
|---------------------------------------|


  S S S S  S S  S S S  S S S S S S S   S S S S S S S S S S S S S S S  S
|------------------------------------|----------------------------------|
|------------------------------------|----------------------------------|
|-0---------------0------------------|----------------------------------|
|-4-5-5-5--7-7--7-4-4--------------0-|---------------0-0----------------|
|---------10---10---5--5-5-5-4-4-5-4-|-2-2-2-2-4-4-5-4-4-5-5-5-5-5-7--9-|
|------------------------------------|---------7---------------------12-|
|
| Q        E    E   E.     S E   S S   E   E   E   S S E   S S E   S  S
|-------------------2----------------|----------------------------------|
|-3--------5----3----------5-5-------|---------2---3-2-3---3---3---5--7-|
|----------------------------------4-|-4--------------------------------|
|------------------------------------|----------------------------------|
|------------------------------------|----------------------------------|
|------------------------------------|----------------------------------|


   S  S  S  S  S  S S  S  S S S S S S S S
|-----------------------------------------|
|-----------------------------------------|
|-----------------------------------------|
|---------------------------------0-0-0-0-|
|-10-10-10-10-10-10-9--9--7-7-7-7-4-4-4-4-|
|-14----------14------10-10-----9---------|
|
|  E     E     E    S  S  E   E   E   E
|-----------------------------------------|
|--8-----------8----7-----5---3---2-------|
|----------------------7------------------|
|-----------------------------------------|
|-----------------------------------------|
|-----------------------------------------|


  Q  Q    E E E E   Q    Q           Q.       S S
|-----------------|-------------------------------|
|-----------------|-------------------------------|
|-----------------|-------------------------------|
|-0--2----4-6-7-9-|------2-----------4--------4-2-|
|-4--0----2-4-5-7-|-5----0-----------2--------2-0-|
|-3---------------|-3-----------------------------|
|
| Q  E. S E E E E   E E  S  S  S  S  E   E  E E
|-----------------|-------------------------------|
|----2--2-3-5-7---|-------------------------------|
|-4-------------7-|-------------------------------|
|-----------------|-9---11-11-11-11-12--11-12-----|
|-----------------|-------------------------------|
|-----------------|-------------------------------|


   Q     Q     E  E  E  E    Q       Q           H
|-------------------------|----------------------------|
|-------------------------|----------------------------|
|-------------------------|----------------------2-----|
|--------2-----4--6--7--9-|----------2-----------0-----|
|--5-----0-----2--4--5--7-|--5-------0-----------------|
|--3----------------------|--3-------------------------|
|
|  E  E  E  E  E  E  E  E    E S  S  S  S  S  S  Q  Q
|-------------------------|----------------------------|
|-------------------------|----------------------------|
|-------------------------|----------------------------|
|-12-11-12-11-12-14-16----|----------------------------|
|----------------------17-|------17-16-16-16-17-17-----|
|-------------------------|-19-------------------------|


   Q   Q      E  E  E  E    Q    Q           Q.       S S
|------------------------|--------------------------------|
|------------------------|--------------------------------|
|------------------------|--------------------------------|
|------2------4--6--7--9-|-------2-----------4--------4-2-|
|--5---0------2--4--5--7-|--5----0-----------2--------2-0-|
|--3---------------------|--3-----------------------------|
|
|  Q   E.  S  E  E  E  E    E E  S  S  S  S  E   E  E E
|------------------------|--------------------------------|
|------------------------|--------------------------------|
|------------------------|--------------------------------|
|------------------------|--------------------------------|
|------------------21----|--------------------------------|
|-19--21--21-22-24----22-|-19---21-21-21-21-22--21-22-----|


   Q     Q     E  E  E  E    Q       Q           H
|-------------------------|----------------------------|
|-------------------------|----------------------------|
|-------------------------|----------------------2-----|
|--------2-----4--6--7--9-|----------2-----------0-----|
|--5-----0-----2--4--5--7-|--5-------0-----------------|
|--3----------------------|--3-------------------------|
|
| Gtr II
|  W                         W
|-------------------------|----------------------------|
|-------------------------|----------------------------|
|-------------------------|----------------------------|
|-------------------------|----------------------------|
|-------------------------|----------------------------|
|-------------------------|----------------------------|
|
| Gtr III
|  E  E  E  E  E  E  E  E    E S  S  S  S  S  S  Q  Q
|-------------------------|----------------------------|
|-------------------------|----------------------------|
|-------------------------|----------------------------|
|-------------------------|----------------------------|
|-------------------21----|------17-16-16-16-17-17-----|
|-22-21-22-21-22-24----22-|-19-------------------------|


  Q=100
   E  S  S  S S  E  E     S  S  E     E
|----------------------------------------|
|-------------------1-----1--3-----------|
|--0--0--2--3-2--0--------------3-----2--|
|----------------------------------------|
|----------------------------------------|
|----------------------------------------|
|
|  E  S  S  S S  E  E     S  S  E     E
|-------------------1-----1--3-----------|
|--------3--4-3--1--------------4-----3--|
|--5--5----------------------------------|
|----------------------------------------|
|----------------------------------------|
|----------------------------------------|
|
|  E  S  S  E    E  S  S  S  S  S  S  E
|----------------------------------------|
|----------------------------------------|
|----------------------------------------|
|----------------------------------------|
|-15-15-17-18------20-20-20-22-----------|
|---------------20-------------23-22-22--|


   E  S  S  S  S  E  E  E  E E    E  S  S  S S  E  E     S  S  E     E
|------------------------------|---------------------------------------|
|-----------------------3------|----------------------------3----------|
|--0--0--2--3--2--0--3--2--5---|-------------------5-----5-----3-----2-|
|--------------------3--0--5---|--5--5--7--8-7--5----------------------|
|--------------------1-----3---|---------------------------------------|
|------------------------------|---------------------------------------|
|
|  E  S  S  S  S  E  H            E  S  S  S S  E  E     S  S  E     E
|------------------------------|-------------------1-----1--3----------|
|--1--1--3--4--3--1------------|--1--1--3--4-3--1--------------4-----3-|
|------------------------------|---------------------------------------|
|------------------------------|---------------------------------------|
|------------------------------|---------------------------------------|
|------------------------------|---------------------------------------|
|
|  E  S  S  S  S  E  E  E  E E    E  S  S  E    E  S  S  S  S  S  S  E
|------------------------------|---------------------------------------|
|------------------------------|---------------------------------------|
|------------------------------|---------------------------------------|
|------------------------------|---------------------------------------|
|----------------------17-15---|-15-15-17-18------20-20-20-22----------|
|-20-20-22-23-20-20-18---------|---------------20-------------23-22-22-|


   E  S  S  S  S  E    E  E  E E
|---------------------------------|
|----------------------------1----|
|--0--0--2--3--2--0----3--3--0----|
|----------------------3--3-------|
|----------------------1--1--3----|
|---------------------------------|
|
|  E  S  S  S  S  E    H
|---------------------------------|
|--1--1--3--4--3--1---------------|
|---------------------------------|
|---------------------------------|
|---------------------------------|
|---------------------------------|
|
|  E  S  S  S  S  S S  E  E  E E
|---------------------------------|
|---------------------------------|
|---------------------------------|
|---------------------------------|
|------------------------17-15----|
|-20-20-22-23-20-20---18----------|


   E  S  S  S S  E  E     S  S  E     E
|---------------------------------------|
|-------------------1-----1--3----------|
|--0--0--2--3-2--0--------------3-----2-|
|---------------------------------------|
|---------------------------------------|
|---------------------------------------|
|
|  E  S  S  S S  E  E     S  S  E     E
|-------------------1-----1--3----------|
|--1--1--3--4-3--1--------------4-----3-|
|---------------------------------------|
|---------------------------------------|
|---------------------------------------|
|---------------------------------------|
|
|  E  S  S  E    E  S  S  S  S  S  S  E
|---------------------------------------|
|---------------------------------------|
|---------------------------------------|
|---------------------------------------|
|-15-15-17-18------20-20-20-22----------|
|---------------20-------------23-22-22-|


   E  S  S  S  S  E  E  E  E E    E  S  S  S S  E  E     S  S  E     E
|------------------------------|----------------------------------------|
|-----------------------3------|----------------------------3-----------|
|--0--0--2--3--2--0--3--2--5---|-------------------5-----5-----3-----2--|
|--------------------3--0--5---|--5--5--7--8-7--5-----------------------|
|--------------------1-----3---|----------------------------------------|
|------------------------------|----------------------------------------|
|
|  E  S  S  S  S  E  H            E  S  S  S S  E  E     S  S  E     E
|------------------------------|-------------------1-----1--3-----------|
|--1--1--3--4--3--1------------|--1--1--3--4-3--1--------------4-----3--|
|------------------------------|----------------------------------------|
|------------------------------|----------------------------------------|
|------------------------------|----------------------------------------|
|------------------------------|----------------------------------------|
|
|  E  S  S  S  S  E  E  E  E E    E  S  S  E    E  S  S  S  S  S  S  E
|------------------------------|----------------------------------------|
|------------------------------|----------------------------------------|
|------------------------------|----------------------------------------|
|------------------------------|----------------------------------------|
|----------------------17-15---|-15-15-17-18------20-20-20-22-----------|
|-20-20-22-23-20-20-18---------|---------------20-------------23-22-22--|


                                   Q=74
   E  S  S  S  S  E    E  E  E E    S S S S  S S  S  S  S  S  S S   S  S S S
|----------------------------1---|-------------------------------------------|
|----------------------4--4--1---|-------------------------------------------|
|--0--0--2--3--2--0----3--3------|----------------0--0-------------------0-0-|
|----------------------1--1--3---|-----------4-4--4--4--4-----------4--4-4-4-|
|--------------------------------|--2-2-2-2----------------2--2-2------------|
|--------------------------------|----------------------7--------------------|
|
|  E  S  S  S  S  E    H            W
|--------------------------------|-------------------------------------------|
|--1--1--3--4--3--1--------------|-------------------------------------------|
|--------------------------------|-------------------------------------------|
|--------------------------------|-------------------------------------------|
|--------------------------------|-------------------------------------------|
|--------------------------------|-------------------------------------------|
|
|  E  S  S  S  S  S S  E  E  E E    Q        E    S  S  S  S  E    +S  S E
|--------------------------------|-------------------------------------------|
|--------------------------------|-------------------------------------------|
|--------------------------------|-------------------------------------------|
|--------------------------------|-------------------------------------------|
|---------------------18-18-20---|-------------------------------------------|
|-20-20-22-23-20-20--------------|-19-------21---22-21-22-21-22---(22)-------|


   S S S S  S S  S S  S  S S  S  S S S S
|----------------------------------------|
|----------------------------------------|
|--0---------------0---------------------|
|--4-5-5-5--7-7--7-4--4----------------0-|
|----------10---10----5--5-5--5--4-4-5-4-|
|----------------------------------------|
|
| Gtr III
|  Q        Q         E.      S  Q
|----------------------------------------|
|----------------------------------------|
|----------------------------------------|
|----------------------------------------|
|--------------------21------19-19-------|
|-22-------24----------------------------|


   S  S S  S  S S  S  S  S  S  S S  S S  S  S
|---------------------------------------------|
|---------------------------------------------|
|---------------------------------------------|
|---------------------0--0--------------------|
|--2--2-2--2--4-4--5--4--4--5--5-5--5-5--7--9-|
|-------------7----------------------------12-|
|
|  E.      S  E    S  S  S  S  S S  E    S  S
|---------------------------------------------|
|---------------------------------------------|
|---------------------------------------------|
|---------------------------------------------|
|------------------------------------------21-|
|-19------19-21---22-21-22-21-22---22---24----|


   S  S  S  S  S  S  S  S  S S  S S  S S S S
|--------------------------------------------|
|--------------------------------------------|
|--------------------------------------------|
|------------------------------------0-0-0-0-|
|-10-10-10-10-10-10--9--9--7-7--7-7--4-4-4-4-|
|-14----------14-------10-10------9----------|
|
|  E     S  S  E     S  S  E    E    E   S S
|--------------------------------------------|
|--------------------------------------------|
|------------------------------------------2-|
|--------------------------------------------|
|-22-------22-22----21-----------------------|
|----------------------22-24---22---21-------|


  S  S S S S S S S  S  S  S S  S  S S S
|---------------------------------------|
|---------------------------------------|
|--------------0-0------------------0-0-|
|----------4-4-4-4--4----------4--4-4-4-|
|-4--2-2-2-------------2--2-2-----------|
|-7-----------------7-------------------|
|
| E.     S E   S S +S  E.     +S  S E
|---------------------------------------|
|----------2---3-2-(2)-3------(3)-------|
|-4------4------------------------------|
|---------------------------------------|
|---------------------------------------|
|---------------------------------------|


  S S S S  S S  S S S  S S S S S S S   S S S S S S S S S S S S S S S  S
|------------------------------------|----------------------------------|
|------------------------------------|----------------------------------|
|-0---------------0------------------|----------------------------------|
|-4-5-5-5--7-7--7-4-4--------------0-|---------------0-0----------------|
|---------10---10---5--5-5-5-4-4-5-4-|-2-2-2-2-4-4-5-4-4-5-5-5-5-5-7--9-|
|------------------------------------|---------7---------------------12-|
|
| Q        E    E   E.     S E   E     E   S S E   S S E   E   E   S  S
|-------------------2----------------|----------------------------------|
|-3--------5----3----------5-5-------|---------2---3-2-3-------3---5--7-|
|------------------------------------|-4-----4--------------------------|
|------------------------------------|----------------------------------|
|------------------------------------|----------------------------------|
|------------------------------------|----------------------------------|


   S  S  S  S  S  S S  S  S S S S S S S S
|-----------------------------------------|
|-----------------------------------------|
|-----------------------------------------|
|---------------------------------0-0-0-0-|
|-10-10-10-10-10-10-9--9--7-7-7-7-4-4-4-4-|
|-14----------14------10-10-----9---------|
|
|  E     E     E    S  S  E   E   E   E
|-----------------------------------------|
|--8-----------8----7-----5---3---2-------|
|----------------------7------------------|
|-----------------------------------------|
|-----------------------------------------|
|-----------------------------------------|


  Q  Q    E E E E   Q    Q           Q.       S S
|-----------------|-------------------------------|
|-----------------|-------------------------------|
|-----------------|-------------------------------|
|-0--2----4-6-7-9-|------2-----------4--------4-2-|
|-4--0----2-4-5-7-|-5----0-----------2--------2-0-|
|-3---------------|-3-----------------------------|
|
| Q  E. S E E E E   E E  S  S  S  S  E   E  E E
|-----------------|-------------------------------|
|----2--2-3-5-7---|-------------------------------|
|-4-------------7-|-------------------------------|
|-----------------|-9---11-11-11-11-12--11-12-----|
|-----------------|-------------------------------|
|-----------------|-------------------------------|


   Q     Q     E  E  E  E    Q       Q           H
|-------------------------|----------------------------|
|-------------------------|----------------------------|
|-------------------------|----------------------2-----|
|--------2-----4--6--7--9-|----------2-----------0-----|
|--5-----0-----2--4--5--7-|--5-------0-----------------|
|--3----------------------|--3-------------------------|
|
|  E  E  E  E  E  E  E  E    E S  S  S  S  S  S  Q  Q
|-------------------------|----------------------------|
|-------------------------|----------------------------|
|-------------------------|----------------------------|
|-12-11-12-11-12-14-16----|----------------------------|
|----------------------17-|------17-16-16-16-17-17-----|
|-------------------------|-19-------------------------|


   Q   Q      E  E  E  E    Q    Q           Q.       S S
|------------------------|--------------------------------|
|------------------------|--------------------------------|
|------------------------|--------------------------------|
|------2------4--6--7--9-|-------2-----------4--------4-2-|
|--5---0------2--4--5--7-|--5----0-----------2--------2-0-|
|--3---------------------|--3-----------------------------|
|
|  Q   E.  S  E  E  E  E    E E  S  S  S  S  E   E  E E
|------------------------|--------------------------------|
|------------------------|--------------------------------|
|------------------------|--------------------------------|
|------------------------|--------------------------------|
|------------------21----|--------------------------------|
|-19--21--21-22-24----22-|-19---21-21-21-21-22--21-22-----|


   Q     Q     E  E  E  E    Q       Q           H
|-------------------------|----------------------------|
|-------------------------|----------------------------|
|-------------------------|----------------------2-----|
|--------2-----4--6--7--9-|----------2-----------0-----|
|--5-----0-----2--4--5--7-|--5-------0-----------------|
|--3----------------------|--3-------------------------|
|
| Gtr II
|  W                         W
|-------------------------|----------------------------|
|-------------------------|----------------------------|
|-------------------------|----------------------------|
|-------------------------|----------------------------|
|-------------------------|----------------------------|
|-------------------------|----------------------------|
|
| Gtr III
|  E  E  E  E  E  E  E  E    E S  S  S  S  S  S  Q  Q
|-------------------------|----------------------------|
|-------------------------|----------------------------|
|-------------------------|----------------------------|
|-------------------------|----------------------------|
|-------------------21----|------17-16-16-16-17-17-----|
|-22-21-22-21-22-24----22-|-19-------------------------|


  Q=100
   E  S  S  S S  E  E     S  S  E     E
|----------------------------------------|
|-------------------1-----1--3-----------|
|--0--0--2--3-2--0--------------3-----2--|
|----------------------------------------|
|----------------------------------------|
|----------------------------------------|
|
|  E  S  S  S S  E  E     S  S  E     E
|-------------------1-----1--3-----------|
|--1--1--3--4-3--1--------------4-----3--|
|----------------------------------------|
|----------------------------------------|
|----------------------------------------|
|----------------------------------------|
|
|  E  S  S  E    E  S  S  S  S  S  S  E
|----------------------------------------|
|----------------------------------------|
|----------------------------------------|
|----------------------------------------|
|-15-15-17-18------20-20-20-22-----------|
|---------------20-------------23-22-22--|


   E  S  S  S  S  E  E  E  E E    E  S  S  S S  E  E     S  S  E     E
|------------------------------|---------------------------------------|
|-----------------------3------|----------------------------3----------|
|--0--0--2--3--2--0--3--2--5---|-------------------5-----5-----3-----2-|
|--------------------3--0--5---|--5--5--7--8-7--5----------------------|
|--------------------1-----3---|---------------------------------------|
|------------------------------|---------------------------------------|
|
|  E  S  S  S  S  E  H            E  S  S  S S  E  E     S  S  E     E
|------------------------------|-------------------1-----1--3----------|
|--1--1--3--4--3--1------------|--1--1--3--4-3--1--------------4-----3-|
|------------------------------|---------------------------------------|
|------------------------------|---------------------------------------|
|------------------------------|---------------------------------------|
|------------------------------|---------------------------------------|
|
|  E  S  S  S  S  E  E  E  E E    E  S  S  E    E  S  S  S  S  S  S  E
|------------------------------|---------------------------------------|
|------------------------------|---------------------------------------|
|------------------------------|---------------------------------------|
|------------------------------|---------------------------------------|
|----------------------17-15---|-15-15-17-18------20-20-20-22----------|
|-20-20-22-23-20-20-18---------|---------------20-------------23-22-22-|


   E  S  S  S  S  E    E  E  E E
|---------------------------------|
|----------------------------1----|
|--0--0--2--3--2--0----3--3--0----|
|----------------------3--3-------|
|----------------------1--1--3----|
|---------------------------------|
|
|  E  S  S  S  S  E    H
|---------------------------------|
|--1--1--3--4--3--1---------------|
|---------------------------------|
|---------------------------------|
|---------------------------------|
|---------------------------------|
|
|  E  S  S  S  S  S S  E  E  E E
|---------------------------------|
|---------------------------------|
|---------------------------------|
|---------------------------------|
|------------------------17-15----|
|-20-20-22-23-20-20---18----------|


   E  S  S  S S  E  E     S  S  E     E
|---------------------------------------|
|-------------------1-----1--3----------|
|--0--0--2--3-2--0--------------3-----2-|
|---------------------------------------|
|---------------------------------------|
|---------------------------------------|
|
|  E  S  S  S S  E  E     S  S  E     E
|-------------------1-----1--3----------|
|--1--1--3--4-3--1--------------4-----3-|
|---------------------------------------|
|---------------------------------------|
|---------------------------------------|
|---------------------------------------|
|
|  E  S  S  E    E  S  S  S  S  S  S  E
|---------------------------------------|
|---------------------------------------|
|---------------------------------------|
|---------------------------------------|
|-15-15-17-18------20-20-20-22----------|
|---------------20-------------23-22-22-|


   E  S  S  S  S  E  E  E  E E    E  S  S  S S  E  E     S  S  E     E
|------------------------------|----------------------------------------|
|-----------------------3------|----------------------------3-----------|
|--0--0--2--3--2--0--3--2--5---|-------------------5-----5-----3-----2--|
|--------------------3--0--5---|--5--5--7--8-7--5-----------------------|
|--------------------1-----3---|----------------------------------------|
|------------------------------|----------------------------------------|
|
|  E  S  S  S  S  E  H            E  S  S  S S  E  E     S  S  E     E
|------------------------------|-------------------1-----1--3-----------|
|--1--1--3--4--3--1------------|--1--1--3--4-3--1--------------4-----3--|
|------------------------------|----------------------------------------|
|------------------------------|----------------------------------------|
|------------------------------|----------------------------------------|
|------------------------------|----------------------------------------|
|
|  E  S  S  S  S  E  E  E  E E    E  S  S  E    E  S  S  S  S  S  S  E
|------------------------------|----------------------------------------|
|------------------------------|----------------------------------------|
|------------------------------|----------------------------------------|
|------------------------------|----------------------------------------|
|----------------------17-15---|-15-15-17-18------20-20-20-22-----------|
|-20-20-22-23-20-20-18---------|---------------20-------------23-22-22--|


   E  S  S  S  S  E    E  E  E E    E E  E E  E  E  E E    E E  E E  E  E  Q
|----------------------------1---|----------------------|---------------------|
|----------------------4--4--1---|----------------------|---------------------|
|--0--0--2--3--2--0----3--3------|-------2--------------|-------2-------------|
|----------------------1--1--3---|--2----0----2-----2---|--2----0----2-----2--|
|--------------------------------|--0---------0--2--0---|--0---------0--2--0--|
|--------------------------------|---------------0------|---------------0-----|
|
|  E  S  S  S  S  E    H            E E  E E  E  E  E E    E E  E E  E  E  Q
|--------------------------------|-17-------------------|---------------------|
|--1--1--3--4--3--1--------------|------15--------------|------15-------------|
|--------------------------------|-----------14-13-14---|-14--------14-13-14--|
|--------------------------------|----------------------|---------------------|
|--------------------------------|----------------------|---------------------|
|--------------------------------|----------------------|---------------------|
|
|  E  S  S  S  S  S S  E  E  E E    W                      W
|--------------------------------|----------------------|---------------------|
|--------------------------------|----------------------|---------------------|
|--------------------------------|----------------------|---------------------|
|--------------------------------|----------------------|---------------------|
|---------------------18-18-20---|----------------------|---------------------|
|-20-20-22-23-20-20--------------|----------------------|---------------------|


   S  S  S  S  S  S  S  S  S  S  S  S  S S  E
|---------------------------------------------|
|---------------------------------------------|
|---------------------------------------------|
|--2--2--2--2--2--0--0--0--0------------------|
|--------------5-----------0--0--0--0--0------|
|--------------------------------------3----2-|
|
|  S  S  S  S  S  S  S  S  S  S  S  S  E    E
|-12-14-15------------------------------------|
|-------19-17-15-17-19----------17------------|
|-------------------21-19-18-19-19-18-16---15-|
|---------------------------------------------|
|---------------------------------------------|
|---------------------------------------------|


   S  S  S  S  S  S  S  S  S  S  S  S  S  S  E
|-----------------------------------------------|
|-----------------------------------------------|
|-----------------------------------------------|
|--2--2--2--2--2--0--0--0--0--------------------|
|--------------5-----------0--0--0--0--0--------|
|--------------------------------------3-----2--|
|
|  S  S  S  S  S  S  S  S  S  S  S  S  S  S  E
|-----------------------------------------------|
|-17-19-20-------17-19----------17--------------|
|-------23-21-19----21-19-18-19-19-18-16-15-16--|
|-----------------------------------------------|
|-----------------------------------------------|
|-----------------------------------------------|


   S  S  S  S  S  S  S  S  S  S  S  S  S S  E
|---------------------------------------------|
|---------------------------------------------|
|---------------------------------------------|
|--2--2--2--2--2--0--0--0--0------------------|
|--------------5-----------0--0--0--0--0------|
|--------------------------------------3----2-|
|
|  S  S  S  S  S  S  S  S  S  S  S  S  E    E
|---------------------------------------------|
|-17-19-20-------17-19----------17------------|
|-------23-21-19----21-19-18-19-19-18-16---15-|
|---------------------------------------------|
|---------------------------------------------|
|---------------------------------------------|


   S  S  S  S  S  S  S  S  S  S  S  S  S  S  E
|-----------------------------------------------|
|-----------------------------------------------|
|-----------------------------------------------|
|--2--2--2--2--2--0--0--0--0--------------------|
|--------------5-----------0--0--0--0--0--------|
|--------------------------------------3-----2--|
|
|  S  S  S  S  S  S  S  S  S  S  S  S  S  S  E
|-----------------------------------------------|
|-17-19-20-------17-19----------17--------------|
|-------23-21-19----21-19-18-19-19-18-16-15-16--|
|-----------------------------------------------|
|-----------------------------------------------|
|-----------------------------------------------|


  S S S S Q       Q       E   E     S S S S Q          Q        Q
|---------------------------------|--------------------------------------|
|---------------------------------|--------------------------------------|
|---------------------------------|--------------------------------------|
|-2-2-2-2-2-------4-------5---5---|-2-2-2-2-2----------------------------|
|-0-0-0-0-0-------2-------3---3---|-0-0-0-0-0----------3--------5--------|
|---------------------------------|--------------------1--------3--------|
|
| S S S S S S S S S S S S S S S S   S S S S S  S S  S  S  S  E  S  S  E
|---------------------------------|-----0-5-8----------------------------|
|---------1-----------------------|---1-------10-------------------------|
|-------2---2-----------2---------|-2------------9-----------------------|
|-----2-------2-----0-2---2-0-----|----------------10-10-------12--------|
|-0-3-----------3-2-----------3-2-|----------------------12-------14-----|
|---------------------------------|-------------------------13-------15--|


   S  S  S  S  Q           Q           E     E
|------------------------------------------------|
|------------------------------------------------|
|------------------------------------------------|
|--2--2--2--2--2-----------4-----------5-----5---|
|--0--0--0--0--0-----------2-----------3-----3---|
|------------------------------------------------|
|
|  S  S  S  S  S  S  S  S  S  S  S  S  S  S  S S
|------------------------------------------------|
|-------------13---------------------------------|
|----------14----14----------------14------------|
|-------14----------14-------12-14----14-12-10-9-|
|----15----------------15-14---------------------|
|-17---------------------------------------------|


   S S  S  S  Q           Q        Q
|-------------------------------------------|
|-------------------------------------------|
|-------------------------------------------|
|--2-2--2--2--2-----------------------------|
|--0-0--0--0--0-----------3--------5--------|
|-------------------------1--------3--------|
|
|  S S  S  S  S  S  S  S  S  S  E  S  S  E
|----8-12-17-20-----------------------------|
|-10------------22-------22-------24--------|
|------------------21-------21-------24-----|
|---------------------22-------22-------24--|
|-------------------------------------------|
|-------------------------------------------|


   S  S  S  S  Q           Q           E     E
|-------------------------------------------------|
|-------------------------------------------------|
|-------------------------------------------------|
|--2--2--2--2--2-----------4-----------5-----5----|
|--0--0--0--0--0-----------2-----------3-----3----|
|-------------------------------------------------|
|
|  S  S  S  S  S  S  S  S  S  S  S  S  S  S  S  S
|--------8-12-15----17-15----17-15----17-15-------|
|-------12-------13-13----13-13----13-13----13-15-|
|----------------14----14-14----14-14----14-14-14-|
|-------------------------------------------------|
|-24-24-------------------------------------------|
|-------------------------------------------------|


   S  S  S  S  Q           Q           Q
|-------------------------------------------------|
|-------------------------------------------------|
|-------------------------------------------------|
|--2--2--2--2--2----------------------------------|
|--0--0--0--0--0-----------3-----------5----------|
|--------------------------1-----------3----------|
|
|  S  S  S  S  S  S  S  S  S  S  S  S  S  S  S  S
|-------------------------------------------------|
|-17----15-17----15-17----15----------------------|
|----14-14----14-14----14-14-12----14-12----14-12-|
|-14-14----14-14----14-14----14-12-12----12-12----|
|-------------------------------12----12-12----12-|
|-------------------------------------------------|


   S  S  S  S  Q           Q           E     E
|-------------------------------------------------|
|-------------------------------------------------|
|-------------------------------------------------|
|--2--2--2--2--2-----------4-----------5-----5----|
|--0--0--0--0--0-----------2-----------3-----3----|
|-------------------------------------------------|
|
|  S  S  S  S  S  S  S  S  S  S  S  S  S  S  S  S
|-------------------------------------------------|
|-------------------------------------------------|
|----14-12----14-12-------------------------------|
|-12-12----12-12----12-12-14----12-14----12-14----|
|-12----12-12----12-12-12----12-12----12-12----12-|
|-------------------------12-12----12-12----12-12-|


   S  S  S  S  Q           Q           Q
|-------------------------------------------------|
|-------------------------------------------------|
|-------------------------------------------------|
|--2--2--2--2--2----------------------------------|
|--0--0--0--0--0-----------3-----------5----------|
|--------------------------1-----------3----------|
|
|  S  S  S  S  S  S  S  S  S  S  S  S  S  S  S  S
|-------------------------------------------------|
|-------------------10----13-12-13-12-13-12-13-12-|
|-------------14-12-12-12-12-14----14----14-16-14-|
|-14-12-14-12-12-12----12-------14----14----------|
|-17-12-17-12-------------------------------------|
|-------------------------------------------------|


  Q=95
 6/4
   S  S S S S S S S S S S S S  S S S S S S S S S S S
|----------------------------------------------------|
|----------------------------------------------------|
|-----2-2-2-2---2-2-2-2-2----------------------------|
|--5--0-0-0-0-5-0-0-0-0-0-2-3--3-3-3-3-2-3-3-3-3-3-2-|
|--3----------3-----------0-1--1-1-1-1-0-1-1-1-1-1-0-|
|----------------------------------------------------|
|
|  H.                       H.
|----------------------------------------------------|
|-13-------------------------------------------------|
|-16-------------------------------------------------|
|----------------------------------------------------|
|----------------------------------------------------|
|----------------------------------------------------|


   S S S S S S S S S S S S S S S S   S  S S S S S S S
|-----------------------------------------------------|
|-----------------------------------------------------|
|-----------------------------------------------2-----|
|--5-5-5-5-5-3-5-5-5-5-5-3-------5---3----5-5-5-0-5-2-|
|--3-3-3-3-3---3-3-3-3-3---3-3-3-3------3-3-3-3---3-0-|
|------------6-----------6-1-1-1-----6--1-------------|
|
|  W                                +H
|-----------------------------------------------------|
|-13-------------------------------(13)---------------|
|-----------------------------------------------------|
|-----------------------------------------------------|
|-----------------------------------------------------|
|-----------------------------------------------------|


  S S S S S S S S S S S S S S S S S S S S S S S S
|-------------------------------------------------|
|-------------------------------------------------|
|---2-2-2-2---2-2-2-2-2---------------------------|
|-5-0-0-0-0-5-0-0-0-0-0-2-3-3-3-3-3-2-3-3-3-3-3-2-|
|-3---------3-----------0-1-1-1-1-1-0-1-1-1-1-1-0-|
|-------------------------------------------------|


  S S S S S S S S S S S S S S S S S S S S S S S S
|-------------------------------------------------|
|-------------------------------------------------|
|-------------------------------------------2-----|
|-5-5-5-5-5-3-5-5-5-5-5-3-------5-3---5-5-5-0-5-2-|
|-3-3-3-3-3---3-3-3-3-3---3-3-3-3---3-3-3-3---3-0-|
|-----------6-----------6-1-1-1---6-1-------------|


   S S S  S  S  S  S S  S  S  S  S  S S  S  S S  S  S S S  S  S  S
|------------------------------------------------------------------|
|------------------------------------------------------------------|
|----2-2--2--2-----2-2--2--2--2------------------------------------|
|--5-0-0--0--0--5--0-0--0--0--0--2--3-3--3--3-3--2--3-3-3--3--3--2-|
|--3------------3----------------0--1-1--1--1-1--0--1-1-1--1--1--0-|
|------------------------------------------------------------------|
|
| Gtr III
|  E   S  S  S  S  E    S  S  S  S  S S  S  E    S  S E    S  S  S
|------------------------------------------------------------------|
|------------------------------------------------------------------|
|------------------------------------------------------------------|
|------------------------------------------------------------------|
|------------------------------------------------------------------|
|-22-----22-22-20-22---22-24-22-20-22---22-22---20-22-----24-22-22-|


   S S S  S S  S  S S S  S S  S  S  S S S S S  S S S S S S
|----------------------------------------------------------|
|----------------------------------------------------------|
|----------------------------------------------------2-----|
|--5-5-5--5-5--3--5-5-5--5-5--3---------5-3----5-5-5-0-5-2-|
|--3-3-3--3-3-----3-3-3--3-3-----3--3-3-3---3--3-3-3---3-0-|
|--------------6--------------6--1--1-1---6-1--------------|
|
|  S E    E    S  S E    S S  S  Q.            Q       E
|----------------------------------------------------------|
|----------------------------------------------------------|
|----------------------------------------------------------|
|----------------------------------------------------------|
|-------------------------------20------------19-----------|
|-20-----20---20-20-----20---20----------------------------|


   S S S  S  S  S  S S  S  S  S  S  S S  S  S S  S  S S S  S  S  S
|------------------------------------------------------------------|
|------------------------------------------------------------------|
|----2-2--2--2-----2-2--2--2--2------------------------------------|
|--5-0-0--0--0--5--0-0--0--0--0--2--3-3--3--3-3--2--3-3-3--3--3--2-|
|--3------------3----------------0--1-1--1--1-1--0--1-1-1--1--1--0-|
|------------------------------------------------------------------|
|
|  E   S  S  S  S  E    S  S  S  S  S S  S  E    S  S E    S  S  S
|------------------------------------------------------------------|
|------------------------------------------------------------------|
|------------------------------------------------------------------|
|------------------------------------------------------------------|
|-17-----17-17-15-17---17-19-17-15-17---17-17---15-17-----19-17-17-|
|------------------------------------------------------------------|


   S S S  S S  S  S S S  S S  S  S  S S S S S  S S S S S S
|----------------------------------------------------------|
|----------------------------------------------------------|
|----------------------------------------------------2-----|
|--5-5-5--5-5--3--5-5-5--5-5--3---------5-3----5-5-5-0-5-2-|
|--3-3-3--3-3-----3-3-3--3-3-----3--3-3-3---3--3-3-3---3-0-|
|--------------6--------------6--1--1-1---6-1--------------|
|
|  S E    E    S  S E    S S  S  Q.            Q       E
|----------------------------------------------------------|
|----------------------------------------------------------|
|----------------------------------------------------------|
|-------------------------------15------------17-----------|
|-15-----15---15-15-----15---15---------------19-----------|
|----------------------------------------------------------|


   S S S  S  S  S  S S  S  S  S  S  S S  S  S S  S  S S S  S  S  S
|------------------------------------------------------------------|
|------------------------------------------------------------------|
|----2-2--2--2-----2-2--2--2--2------------------------------------|
|--5-0-0--0--0--5--0-0--0--0--0--2--3-3--3--3-3--2--3-3-3--3--3--2-|
|--3------------3----------------0--1-1--1--1-1--0--1-1-1--1--1--0-|
|------------------------------------------------------------------|
|
|  E   S  S  S  S  E    S  S  S  S  S S  S  E    S  S E    S  S  S
|------------------------------------------------------------------|
|------------------------------------------------------------------|
|------------------------------------------------------------------|
|------------------------------------------------------------------|
|-17-----17-17-15-17---17-19-17-15-17---17-17---15-17-----19-17-17-|
|------------------------------------------------------------------|


   S S S  S S  S  S S S  S S  S  S  S S S S S  S S S S S S
|----------------------------------------------------------|
|----------------------------------------------------------|
|----------------------------------------------------2-----|
|--5-5-5--5-5--3--5-5-5--5-5--3---------5-3----5-5-5-0-5-2-|
|--3-3-3--3-3-----3-3-3--3-3-----3--3-3-3---3--3-3-3---3-0-|
|--------------6--------------6--1--1-1---6-1--------------|
|
|  S E    E    S  S E    S S  S  Q.            Q       E
|----------------------------------------------------------|
|----------------------------------------------------------|
|----------------------------------------------------------|
|-------------------------------15------------14-----------|
|-15-----15---15-15-----15---15----------------------------|
|----------------------------------------------------------|


  Q=88
   S S S  S  S  S  S S  S  S  S  S  S S  S  S S  S  S S S  S  S  S
|------------------------------------------------------------------|
|------------------------------------------------------------------|
|----2-2--2--2-----2-2--2--2--2------------------------------------|
|--5-0-0--0--0--5--0-0--0--0--0--2--3-3--3--3-3--2--3-3-3--3--3--2-|
|--3------------3----------------0--1-1--1--1-1--0--1-1-1--1--1--0-|
|------------------------------------------------------------------|
|
|  E   S  S  S  S  E    S  S  S  S  S S  S  E    S  S E    S  S  S
|------------------------------------------------------------------|
|------------------------------------------------------------------|
|------------------------------------------------------------------|
|-12-----12-12-10-12---12-14-12-10-12---12-12---10-12-----14-12-12-|
|------------------------------------------------------------------|
|------------------------------------------------------------------|


                                          Q=Q=Q=Q=74
   S S S  S S  S  S S S  S S  S  S  S S S S S S S S S S S   W        +H
|---------------------------------------------------------|-----------------|
|---------------------------------------------------------|-3--------(3)----|
|---------------------------------------------------2-----|-2--------(2)----|
|--5-5-5--5-5--3--5-5-5--5-5--3---------5-3---5-5-5-0-5-2-|-0--------(0)----|
|--3-3-3--3-3-----3-3-3--3-3-----3--3-3-3---3-3-3-3---3-0-|-----------------|
|--------------6--------------6--1--1-1---6-1-------------|-----------------|
|
|  S E    E    S  S E    S S  S  Q.           Q       E     W
|---------------------------------------------------------|-----------------|
|---------------------------------------------8-----------|-----------------|
|-------------------------------10------------9-----------|-----------------|
|-10-----10---10-10-----10---10---------------------------|-----------------|
|---------------------------------------------------------|-----------------|
|---------------------------------------------------------|-----------------|


  +W         +H
|-------------------*|
|-(3)--------(3)----*|
|-(2)--------(2)----*|
|-(0)--------(0)----*|
|-------------------*|
|-------------------*|



Duration Legend
---------------
W - whole; H - half; Q - quarter; E - 8th; S - 16th; T - 32nd; X - 64th; a - acciaccatura
+ - note tied to previous; . - note dotted; .. - note double dotted
Uncapitalized letters represent notes that are staccato (1/2 duration)
Irregular groupings are notated above the duration line
Duration letters will always appear directly above the note/fret number it represents the
duration for.  Duration letters with no fret number below them represent rests.  Multi-
bar rests are notated in the form Wxn, where n is the number of bars to rest for.  Low
melody durations appear below the staff

Tablature Legend
----------------
 h   - hammer-on
 p   - pull-off
 b   - bend
 pb  - pre-bend
 r   - bend release (if no number after the r, then release immediately)
 /\  - slide into or out of (from/to "nowhere")
 s   - legato slide
 S   - shift slide
 - natural harmonic
[n]  - artificial harmonic
n(n) - tapped harmonic
 ~   - vibrato
 tr  - trill
 T   - tap
 TP  - trem. picking
 PM  - palm muting
\n/  - tremolo bar dip; n = amount to dip
 \n  - tremolo bar down
 n/  - tremolo bar up
/n\  - tremolo bar inverted dip
 =   - hold bend; also acts as connecting device for hammers/pulls
 <> - volume swell (louder/softer)
 x   - on rhythm slash represents muted slash
 o   - on rhythm slash represents single note slash

Misc Legend
-----------
 |  - bar
||  - double bar
||o - repeat start
o|| - repeat end
*|  - double bar (ending)
 :  - bar (freetime)
 $  - Segno
 &  - Coda
Tempo markers -  = BPM(8/16=s8/s16), where s8 = swing 8ths, s16 = swing 16ths

Добавлено: 01.08.2013
Другие материалы по этой песне:

Страница создана 29.02.2012
http://primanota.ru/dragon-heart/gods-of-ice-chords.htm
Привет, Гость.
Предлагаем пройти революционный курс по гитаре.
Подарок от PrimaNota.Ru, забирай!