PrimaNota.ru - самый крупный в мире бесплатный архив песенных текстов, аккордов, табулатур и нот


Dragon Age Inquisition - Main Theme - бас-таба, видео

Регистрация Запомнить меня
Войти через:  Facebook Google Twitter Vk Yandex Mail.ru

Dragon Age Inquisition - Main Theme - бас-таба, видео

Печатать
Просмотров: 183
-------------------------------------------------------------------------------
                             Main Theme - Dragon Age Inquesition OST
-------------------------------------------------------------------------------
Tabbed by: 790FX
Tuning: Drop D

Here is my Bass version of this great soundtrack.
Let all notes ringing.

G|---------14---14-16-17---16-14~------|------14-----------------------------|
D|-12----------------------------------|-12-----------12---15---14\-10~------|
A|-------------------------------------|-------------------------------------|
D|-------------------------------------|-------------------------------------|

G|------14---14-16-17---19--\-14~------|------14----------------------------19-|
D|-12----------------------------------|-12-----------12---15---14\-10---19----|
A|-------------------------------------|---------------------------------------|
D|-------------------------------------|---------------------------------------|


@ 0:52

G|-----------------------------------|------------------------------------|
D|-----7~------7---9---10---9-\-7~---|--------7~----------3---2-----------|
A|-5---------------------------------|----5-----------5-----------3~------|
D|-----------------------------------|------------------------------------|

G|------------------------------------|-----------------------------------7-|
D|-----7~------7---9---10---12-\-7~---|--------7~----------3---2--------7---|
A|-5----------------------------------|----5-----------5-----------3~-------|
D|------------------------------------|-------------------------------------|


@ 1:44
   e e e e s s e e e e s s e e e s s        
G|-------------------------------------------|
D|-------------------------------------------|
A|-0-0-0-0-R-0-0-0-0-0-R-0-0-0-0-R-0-2-3-2-0-| x2
D|-------------------------------------------|

     e e e e   e e e e   e e e e         
G|-------------------------------------|
D|-------------------------------------|
A|-5-0-0-0-0-5-0-0-0-0-5-0-0-0-0-2-3-2-| x2
D|-------------------------------------|


@1:58

G|----------7--------10---------12---9---|-7--------10---------9------7-\-3------|
D|-8------5--------8---------12----------|--------8---------12-------------------|
A|---------------------------------------|---------------------------------------|
D|---------------------------------------|---------------------------------------|

                                                                               e e       e e 
G|-----------7-5-7-----10-9-10------12---9-|-7-5-7-----10-9-10------9------9-9-9-9-9-9-9-9-9-|
D|-8-7-8---5---------8-----------12--------|---------8-----------12--------------------------|
A|-----------------------------------------|-------------------------------------------------|
D|-----------------------------------------|-------------------------------------------------|


@2:30

G|------------------------------|-7*---------------7-R-------------|----------------7*-------------|
D|------------------------------|-7*---------------7-R-------------|-------------------------------|
A|--------------rest------------|-5*---------------5-R-------------|----------------5*-------------|
D|------------------------------|-0*---------------0-R-------------|-------------------------------|


@2:47

G|-----------------------------------|------------------------------------|
D|-----7~------7---9---10---9-\-7~---|--------7~----------3---2-----------|
A|-5---------------------------------|----5-----------5-----------3~------|
D|-----------------------------------|------------------------------------|

   e  e   e  e
G|--------------14~---14--16--17--19~-\--14~---|
D|-12-12--12-12--------------------------------|
A|---------------------------------------------|
D|---------------------------------------------|

                                                           e  e
G|-14-14------14---------------------|------19~------19-19-19-19-\---|
D|-------12--------12---15---14-\-10-|---19--------------------------|
A|-----------------------------------|-------------------------------|
D|-----------------------------------|-------------------------------|

G|-7*--------------------------------|
D|-7*--------------------------------|
A|-5*--------------------------------|
D|-0*--------------------------------|


| /  slide up
| \  slide down
| ~  vibrato
| e  eighth note
| s  sixteenth note
| R  rest
| *  let note ring
===============================================================================
Добавлено: 04.06.2016
Вам также может быть интересно:
Другие материалы по этой песне:
  • Аккорды и текст

Страница создана 04.06.2016
http://primanota.ru/dragon-age-inquisition/main-theme-chords.htm
Привет, Гость.
Предлагаем пройти революционный курс по гитаре.
Подарок от PrimaNota.Ru, забирай!