PrimaNota.ru - самый крупный в мире бесплатный архив песенных текстов, аккордов, табулатур и нот


Draenor - Wish Upon The Fountain Of Eternity - таба, видео

Регистрация Запомнить меня
Войти через:  Facebook Google Twitter Vk Yandex Mail.ru

Draenor - Wish Upon The Fountain Of Eternity - таба, видео

Печатать
Просмотров: 81
Wish Upon A Fountain of Eternity by Draenor

Gtr I (E A D G B E) - 'Medley 1' - Keys

  Q=89
 4/4
  Gtr I
  E  E  S  E S  Q  Q    S S E S E S Q  +S  S E   E S S S E S  Q   +S  S E
|---20----------------|-----3------------------|---8-----------------------|
|------20-20----------|-------4-4--------------|-------8-8-----------------|
|---------------------|------------------------|---------------------------|
|---------------------|-------------5--(5)-----|-------------10--(10)------|
|-3-------------------|------------------------|-3-------------------------|
|--------------20-----|-3----------------------|---------------------------|


  S S E S E S Q  Q    S S  E  S  E S  Q  Q    S S E S E S Q  +S  S E
|-----3-------------|-----20----------------|-----3------------------|
|-------4-4---------|--------20-20----------|-------4-4--------------|
|-------------------|-----------------------|------------------------|
|-------------5-----|-----------------------|-------------5--(5)-----|
|-------------------|-3---------------------|------------------------|
|-3-----------------|----------------20-----|-3----------------------|


  S S S S S E S  Q  Q    S S S S S E S Q  +S  S E
|-----8----------------|-----3--------------------|
|---------8-8----------|---------4-4--------------|
|----------------------|--------------------------|
|---------------10-----|---------------5--(5)-----|
|-3--------------------|--------------------------|
|----------------------|-3------------------------|


  S S  S S  S  E S  Q   +S  S E
|-----20------------------------|
|----------20-20----------------|
|-------------------------------|
|-------------------------------|
|-3-----------------------------|
|------------------20--(20)-----|


  S S S S S E S Q  Q    S S S S S E S  Q  Q    S S S S S E S E E Q
|-----3---------------|-----8----------------|-----3----------------*|
|---------4-4---------|---------8-8----------|---------4-4----------*|
|---------------------|----------------------|----------------------*|
|---------------5-----|---------------10-----|---------------5------*|
|---------------------|-3--------------------|----------------------*|
|-3-------------------|----------------------|-3--------------------*|


Gtr II (E A D G B E) - 'Medley 2' - Harp

  Q=89
 4/4
  Gtr I
  S S S S  S S  S S  E  E E E   S S S S S S  S S S S S S S S S S
|---------20------------------|-8-----------11-----------8-------|
|-----4---------------------4-|----------------------------------|
|----------------------17-----|---------5------------8-----------|
|-----------------------------|----------------------------------|
|-3-----------------18----3---|-----6------------------------6---|
|--------------20-------------|------------------8---------------|


  S S  S S  E  S S  E  S S S S  S S    S S  S S  S S  E S S  E  E  S S
|-----15-----------11----------15---|-----------11----------15---------|
|-4---------------------------------|----------------------------------|
|-------------12-----------8--------|------12-----------8---------12---|
|-----------------------------------|----------------------------------|
|---------------------10------------|----------------10----------------|
|----------11-----------------------|-11-----------------------11------|


   S S  S S  E  S S S S S S  E  S S    S S  S S E S S S S E  E E
|-20------------------------20------|-----------------8--------8--|
|-----------------------1-----------|-------------1---------------|
|-----------------------------------|-----------------------------|
|--------------22-------------------|------22---------------10----|
|-------------------3---------------|-----------3-----------------|
|------20---20-----------------20---|-20------------------8-------|


  S S E S S S S E  E E S S   S S S S S S  S S E S S E S S
|-------8---------11-------|-8-----------11---------8------|
|--------------------------|-------------------------------|
|-----8---------5------8---|---------5----------8----------|
|--------------------------|-------------------------------|
|-----------6--------------|-----6--------------------6----|
|-8------------------8-----|------------------8------------|


  E E E S S  E  S S  S S  S S   S S S S S S E S S  E S S S S
|---8-------20----------------|---------8---------11----------|
|-4---------------------------|-----4-------------------------|
|-------8----------------17---|---------------5----------8----|
|-----------------------------|-------------------------------|
|-------------------18--------|-3-----------6-----------------|
|-----8--------20-------------|----------------------8--------|


   S S  E S S  E  E  S S  S S  S S   E  S S  S S  S S  E  E S S  S S
|-11----------15---------11--------|---15-------------11--------15----*|
|----------------------------------|----------------------------------*|
|---------8---------12-------------|-8-----------12---------8---------*|
|----------------------------------|----------------------------------*|
|------10---------------------10---|---------------------10-----------*|
|----------------11----------------|--------11------------------------*|
Добавлено: 27.06.2015
Другие материалы по этой песне:
  • Аккорды и текст

Страница создана 27.06.2015
http://primanota.ru/draenor/wish-upon-fountain-of-eternity-chords.htm
Привет, Гость.
Предлагаем пройти революционный курс по гитаре.
Подарок от PrimaNota.Ru, забирай!