PrimaNota.ru - самый крупный в мире бесплатный архив песенных текстов, аккордов, табулатур и нот


Draenor - The Will Of Embracement - таба, видео

Регистрация Запомнить меня
Войти через:  Facebook Google Twitter Vk Yandex Mail.ru

Draenor - The Will Of Embracement - таба, видео

Печатать
Просмотров: 116
Уроки эстрадного вокала в Санкт-Петербурге
The Will of Embracement by Draenor
From Beyond Temptations
Official Tab
Written by Russell Silva

Gtr I (E A D G B E) - 'Main guitar'

  Q=109
 4/4
  Gtr I
  E E E E E S S +S  S E   E. S +S  S E E S S +S  S E   E E E E E S S +S  S E
|-----5---5---3-(3)---5-|------------------3-(3)---3-|-----5---5---3-(3)---5--|
|-1---------------------|-5--3-(3)---3-5-------------|-1----------------------|
|-----------------------|----------------------------|------------------------|
|-----------------------|----------------------------|------------------------|
|-----------------------|----------------------------|------------------------|
|-----------------------|----------------------------|------------------------|


  E. S +S  S E E S S +S  S E   E E E E E S S +S  S E
|------------------3-(3)---3-|-----7---7---5-(5)---7-|
|-5--3-(3)---3-5-------------|-3---------------------|
|----------------------------|-----------------------|
|----------------------------|-----------------------|
|----------------------------|-----------------------|
|----------------------------|-----------------------|


  E. S +S  S E E S S +S  S E
|------------------5-(5)---5--|
|-7--5-(5)---5-7--------------|
|-----------------------------|
|-----------------------------|
|-----------------------------|
|-----------------------------|


  E E E E E S S +S  S E   E. S +S  S E E S S +S  S E   E E E E E S S +S  S E
|-----7---7---5-(5)---7-|------------------5-(5)---5-|-----6---6---4-(4)---6-|
|-3---------------------|-7--5-(5)---5-7-------------|-----------------------|
|-----------------------|----------------------------|-6---------------------|
|-----------------------|----------------------------|-----------------------|
|-----------------------|----------------------------|-----------------------|
|-----------------------|----------------------------|-----------------------|


  E. S +S  S E E S S +S  S E   E E E E E S S +S  S E
|------------------4-(4)---4-|-----6---6---4-(4)---6-|
|-6--4-(4)---4-6-------------|-2---------------------|
|----------------------------|-----------------------|
|----------------------------|-----------------------|
|----------------------------|-----------------------|
|----------------------------|-----------------------|


  E. S +S  S E E S S +S  S E
|------------------4-(4)---4--|
|-6--4-(4)---4-6--------------|
|-----------------------------|
|-----------------------------|
|-----------------------------|
|-----------------------------|


  E E E E E S S +S  S E   E. S +S  S E E S S +S  S E   E E E E E S S +S  S E
|-----2---2-------------|----------------------------|-----------------------|
|-------------5-(5)---7-|--------------2---5-(5)---5-|-----7---7---5-(5)---7-|
|-2---------------------|-6--4-(4)---4---------------|-----------------------|
|-----------------------|----------------------------|-7---------------------|
|-----------------------|----------------------------|-----------------------|
|-----------------------|----------------------------|-----------------------|


  E. S +S  S E E S S +S  S E
|-------------------------------*|
|--------------2---5-(5)---5----*|
|-6--4-(4)---4------------------*|
|-------------------------------*|
|-------------------------------*|
|-------------------------------*| (x7)
Добавлено: 27.06.2015
Другие материалы по этой песне:
  • Аккорды и текст

Страница создана 27.06.2015
http://primanota.ru/draenor/will-of-embracement-chords.htm
Привет, Гость.
Предлагаем пройти революционный курс по гитаре.
Подарок от PrimaNota.Ru, забирай!