PrimaNota.ru - самый крупный в мире бесплатный архив песенных текстов, аккордов, табулатур и нот


Draenor - Summoning Fire - таба, видео

Регистрация Запомнить меня
Войти через:  Facebook Google Twitter Vk Yandex Mail.ru

Draenor - Summoning Fire - таба, видео

Печатать
Просмотров: 125
Summoning Fire by Draenor
Official Tab
From Beyond Temptations
Written by Russell Silva

This song consists of 1 Guitar section, but I will tab the flutes to Guitar

Gtr I (E A D G B E) - 'Main Guitar Chords'
*Along with Percussion*
  Q=120
 4/4
  Gtr I
  H    H      H    H      H    H      H    H
|-----------|-----------|-----------|-----------*|
|-----------|------4----|-----------|------1----*|
|-----------|-----------|-----------|-----------*|
|-3----4----|-3----4----|-0----1----|-0----1----*|
|-6----6----|-6----6----|-3----3----|-3----3----*|
|-----------|-----------|-----------|-----------*|

Flute (Gtr II) (E A D G B E) - 'Flute Section'
*Played After Guitar Section*
  Q=120
 4/4
  Gtr I
  E E E E E E E E   E E E E E E E E   E E E E E E E E   E E E E E E E E
|-----------------|---------1-------|-----------------|---------1--------*|
|-5-5-3---5-5-3---|-5-5-3-------3-3-|-5-5-3---5-5-3---|-5-5-3-------3-3--*|
|-----------------|-----------------|-----------------|------------------*|
|-----------------|-----------------|-----------------|------------------*|
|-----------------|-----------------|-----------------|------------------*|
|-----------------|-----------------|-----------------|------------------*| (x2)

Gtr I (E A D G B E) - 'Main Guitar Chords'
*after flute secion*
  Q=120
 4/4
  Gtr I
  H    H      H    H      H    H      H    H
|-----------|-----------|-----------|-----------*|
|-----------|------4----|-----------|------1----*|
|-----------|-----------|-----------|-----------*|
|-3----4----|-3----4----|-0----1----|-0----1----*|
|-6----6----|-6----6----|-3----3----|-3----3----*|
|-----------|-----------|-----------|-----------*|

Reed (Gt III) (E A D G B E) - 'Reed Section'
*played along with Guitar 1
  Q=120
 4/4
  Gtr I
  E E E E E E E E   E E E E E E E E   E E E E E E E E   E E E E E E E E
|-----------------|-----------------|-----------------|------------------*|
|-----3-3-----4-4-|-----3-3-----4-4-|-----3-3-----4-4-|-----3-3-----4-4--*|
|-----------------|-----------------|-----------------|------------------*|
|-----------------|-----------------|-----------------|------------------*|
|-3-3-----3-3-----|-3-3-----3-3-----|-3-3-----3-3-----|-3-3-----3-3------*|
|-----------------|-----------------|-----------------|------------------*|

Gtr I (E A D G B E) - 'Main Guitar Chords'
*Along with Percussion*
  Q=120
 4/4
  Gtr I
  H    H      H    H      H    H      H    H
|-----------|-----------|-----------|-----------*|
|-----------|------4----|-----------|------1----*|
|-----------|-----------|-----------|-----------*|
|-3----4----|-3----4----|-0----1----|-0----1----*|
|-6----6----|-6----6----|-3----3----|-3----3----*|
|-----------|-----------|-----------|-----------*|

Flute (Gtr II) (E A D G B E) - 'Flute Section'
*Played After Guitar Section*
  Q=120
 4/4
  Gtr I
  E E E E E E E E   E E E E E E E E   E E E E E E E E   E E E E E E E E
|-----------------|---------1-------|-----------------|---------1--------*|
|-5-5-3---5-5-3---|-5-5-3-------3-3-|-5-5-3---5-5-3---|-5-5-3-------3-3--*|
|-----------------|-----------------|-----------------|------------------*|
|-----------------|-----------------|-----------------|------------------*|
|-----------------|-----------------|-----------------|------------------*|
|-----------------|-----------------|-----------------|------------------*| (x2)

Gtr I (E A D G B E) - 'Main Guitar Chords'
*after flute secion*
  Q=120
 4/4
  Gtr I
  H    H      H    H      H    H      H    H
|-----------|-----------|-----------|-----------*|
|-----------|------4----|-----------|------1----*|
|-----------|-----------|-----------|-----------*|
|-3----4----|-3----4----|-0----1----|-0----1----*|
|-6----6----|-6----6----|-3----3----|-3----3----*|
|-----------|-----------|-----------|-----------*|

Reed (Gt III) (E A D G B E) - 'Reed Section'
*played along with Guitar 1
  Q=120
 4/4
  Gtr I
  E E E E E E E E   E E E E E E E E   E E E E E E E E   E E E E E E E E
|-----------------|-----------------|-----------------|------------------*|
|-----3-3-----4-4-|-----3-3-----4-4-|-----3-3-----4-4-|-----3-3-----4-4--*|
|-----------------|-----------------|-----------------|------------------*|
|-----------------|-----------------|-----------------|------------------*|
|-3-3-----3-3-----|-3-3-----3-3-----|-3-3-----3-3-----|-3-3-----3-3------*|
|-----------------|-----------------|-----------------|------------------*|

Gtr I (E A D G B E) - 'Main Guitar Chords'
*Along with Percussion*
  Q=120
 4/4
  Gtr I
  H    H      H    H      H    H      H    H
|-----------|-----------|-----------|-----------*|
|-----------|------4----|-----------|------1----*|
|-----------|-----------|-----------|-----------*|
|-3----4----|-3----4----|-0----1----|-0----1----*|
|-6----6----|-6----6----|-3----3----|-3----3----*|
|-----------|-----------|-----------|-----------*|

Flute (Gtr II) (E A D G B E) - 'Flute Section'
*Played After Guitar Section*
  Q=120
 4/4
  Gtr I
  E E E E E E E E   E E E E E E E E   E E E E E E E E   E E E E E E E E
|-----------------|---------1-------|-----------------|---------1--------*|
|-5-5-3---5-5-3---|-5-5-3-------3-3-|-5-5-3---5-5-3---|-5-5-3-------3-3--*|
|-----------------|-----------------|-----------------|------------------*|
|-----------------|-----------------|-----------------|------------------*|
|-----------------|-----------------|-----------------|------------------*|
|-----------------|-----------------|-----------------|------------------*| (x2)

Gtr I (E A D G B E) - 'Main Guitar Chords'
*after flute secion*
  Q=120
 4/4
  Gtr I
  H    H      H    H      H    H      H    H
|-----------|-----------|-----------|-----------*|
|-----------|------4----|-----------|------1----*|
|-----------|-----------|-----------|-----------*|
|-3----4----|-3----4----|-0----1----|-0----1----*|
|-6----6----|-6----6----|-3----3----|-3----3----*|
|-----------|-----------|-----------|-----------*|

Reed (Gt III) (E A D G B E) - 'Reed Section'
*played along with Guitar 1
  Q=120
 4/4
  Gtr I
  E E E E E E E E   E E E E E E E E   E E E E E E E E   E E E E E E E E
|-----------------|-----------------|-----------------|------------------*|
|-----3-3-----4-4-|-----3-3-----4-4-|-----3-3-----4-4-|-----3-3-----4-4--*|
|-----------------|-----------------|-----------------|------------------*|
|-----------------|-----------------|-----------------|------------------*|
|-3-3-----3-3-----|-3-3-----3-3-----|-3-3-----3-3-----|-3-3-----3-3------*|
|-----------------|-----------------|-----------------|------------------*|

Gtr I (E A D G B E) - 'Main Guitar Chords'
*Along with Percussion*
  Q=120
 4/4
  Gtr I
  H    H      H    H      H    H      H    H
|-----------|-----------|-----------|-----------*|
|-----------|------4----|-----------|------1----*|
|-----------|-----------|-----------|-----------*|
|-3----4----|-3----4----|-0----1----|-0----1----*|
|-6----6----|-6----6----|-3----3----|-3----3----*|
|-----------|-----------|-----------|-----------*|

Flute (Gtr II) (E A D G B E) - 'Flute Section'
*Played After Guitar Section*
  Q=120
 4/4
  Gtr I
  E E E E E E E E   E E E E E E E E   E E E E E E E E   E E E E E E E E
|-----------------|---------1-------|-----------------|---------1--------*|
|-5-5-3---5-5-3---|-5-5-3-------3-3-|-5-5-3---5-5-3---|-5-5-3-------3-3--*|
|-----------------|-----------------|-----------------|------------------*|
|-----------------|-----------------|-----------------|------------------*|
|-----------------|-----------------|-----------------|------------------*|
|-----------------|-----------------|-----------------|------------------*| (x2)

Gtr I (E A D G B E) - 'Main Guitar Chords'
*after flute secion*
  Q=120
 4/4
  Gtr I
  H    H      H    H      H    H      H    H
|-----------|-----------|-----------|-----------*|
|-----------|------4----|-----------|------1----*|
|-----------|-----------|-----------|-----------*|
|-3----4----|-3----4----|-0----1----|-0----1----*|
|-6----6----|-6----6----|-3----3----|-3----3----*|
|-----------|-----------|-----------|-----------*|

Reed (Gt III) (E A D G B E) - 'Reed Section'
*played along with Guitar 1
  Q=120
 4/4
  Gtr I
  E E E E E E E E   E E E E E E E E   E E E E E E E E   E E E E E E E E
|-----------------|-----------------|-----------------|------------------*|
|-----3-3-----4-4-|-----3-3-----4-4-|-----3-3-----4-4-|-----3-3-----4-4--*|
|-----------------|-----------------|-----------------|------------------*|
|-----------------|-----------------|-----------------|------------------*|
|-3-3-----3-3-----|-3-3-----3-3-----|-3-3-----3-3-----|-3-3-----3-3------*|
|-----------------|-----------------|-----------------|------------------*|

Gtr I (E A D G B E) - 'Main Guitar Chords'
*Along with Percussion*
  Q=120
 4/4
  Gtr I
  H    H      H    H      H    H      H    H
|-----------|-----------|-----------|-----------*|
|-----------|------4----|-----------|------1----*|
|-----------|-----------|-----------|-----------*|
|-3----4----|-3----4----|-0----1----|-0----1----*|
|-6----6----|-6----6----|-3----3----|-3----3----*|
|-----------|-----------|-----------|-----------*|

Flute (Gtr II) (E A D G B E) - 'Flute Section'
*Played After Guitar Section*
  Q=120
 4/4
  Gtr I
  E E E E E E E E   E E E E E E E E   E E E E E E E E   E E E E E E E E
|-----------------|---------1-------|-----------------|---------1--------*|
|-5-5-3---5-5-3---|-5-5-3-------3-3-|-5-5-3---5-5-3---|-5-5-3-------3-3--*|
|-----------------|-----------------|-----------------|------------------*|
|-----------------|-----------------|-----------------|------------------*|
|-----------------|-----------------|-----------------|------------------*|
|-----------------|-----------------|-----------------|------------------*| (x2)

Gtr I (E A D G B E) - 'Main Guitar Chords'
*after flute secion*
  Q=120
 4/4
  Gtr I
  H    H      H    H      H    H      H    H
|-----------|-----------|-----------|-----------*|
|-----------|------4----|-----------|------1----*|
|-----------|-----------|-----------|-----------*|
|-3----4----|-3----4----|-0----1----|-0----1----*|
|-6----6----|-6----6----|-3----3----|-3----3----*|
|-----------|-----------|-----------|-----------*|

Reed (Gt III) (E A D G B E) - 'Reed Section'
*played along with Guitar 1
  Q=120
 4/4
  Gtr I
  E E E E E E E E   E E E E E E E E   E E E E E E E E   E E E E E E E E
|-----------------|-----------------|-----------------|------------------*|
|-----3-3-----4-4-|-----3-3-----4-4-|-----3-3-----4-4-|-----3-3-----4-4--*|
|-----------------|-----------------|-----------------|------------------*|
|-----------------|-----------------|-----------------|------------------*|
|-3-3-----3-3-----|-3-3-----3-3-----|-3-3-----3-3-----|-3-3-----3-3------*|
|-----------------|-----------------|-----------------|------------------*|

Gtr I (E A D G B E) - 'Main Guitar Chords'
*Along with Percussion*
  Q=120
 4/4
  Gtr I
  H    H      H    H      H    H      H    H
|-----------|-----------|-----------|-----------*|
|-----------|------4----|-----------|------1----*|
|-----------|-----------|-----------|-----------*|
|-3----4----|-3----4----|-0----1----|-0----1----*|
|-6----6----|-6----6----|-3----3----|-3----3----*|
|-----------|-----------|-----------|-----------*|

Flute (Gtr II) (E A D G B E) - 'Flute Section'
*Played After Guitar Section*
  Q=120
 4/4
  Gtr I
  E E E E E E E E   E E E E E E E E   E E E E E E E E   E E E E E E E E
|-----------------|---------1-------|-----------------|---------1--------*|
|-5-5-3---5-5-3---|-5-5-3-------3-3-|-5-5-3---5-5-3---|-5-5-3-------3-3--*|
|-----------------|-----------------|-----------------|------------------*|
|-----------------|-----------------|-----------------|------------------*|
|-----------------|-----------------|-----------------|------------------*|
|-----------------|-----------------|-----------------|------------------*| (x2)

Gtr I (E A D G B E) - 'Main Guitar Chords'
*after flute secion*
  Q=120
 4/4
  Gtr I
  H    H      H    H      H    H      H    H
|-----------|-----------|-----------|-----------*|
|-----------|------4----|-----------|------1----*|
|-----------|-----------|-----------|-----------*|
|-3----4----|-3----4----|-0----1----|-0----1----*|
|-6----6----|-6----6----|-3----3----|-3----3----*|
|-----------|-----------|-----------|-----------*|

Reed (Gt III) (E A D G B E) - 'Reed Section'
*played along with Guitar 1
  Q=120
 4/4
  Gtr I
  E E E E E E E E   E E E E E E E E   E E E E E E E E   E E E E E E E E
|-----------------|-----------------|-----------------|------------------*|
|-----3-3-----4-4-|-----3-3-----4-4-|-----3-3-----4-4-|-----3-3-----4-4--*|
|-----------------|-----------------|-----------------|------------------*|
|-----------------|-----------------|-----------------|------------------*|
|-3-3-----3-3-----|-3-3-----3-3-----|-3-3-----3-3-----|-3-3-----3-3------*|
|-----------------|-----------------|-----------------|------------------*|
Добавлено: 27.06.2015
Другие материалы по этой песне:
  • Аккорды и текст

Страница создана 27.06.2015
http://primanota.ru/draenor/summoning-fire-chords.htm
Привет, Гость.
Предлагаем пройти революционный курс по гитаре.
Подарок от PrimaNota.Ru, забирай!