PrimaNota.ru - самый крупный в мире бесплатный архив песенных текстов, аккордов, табулатур и нот


Draenor - Rise My King - таба, видео

Регистрация Запомнить меня
Войти через:  Facebook Google Twitter Vk Yandex Mail.ru

Draenor - Rise My King - таба, видео

Печатать
Просмотров: 128
RISE, MY KING (MAIN MEDLEY)

Gtr I (E A D G B E) - 

  Q=94
 4/4
  Gtr I
  Q  Q  Q  Q    Q  Q  Q  Q    +Q   Q  +S  S E Q     Q   Q   Q   Q
|-------------|-7--5--3--2--|-(2)----------------|-----------------|
|----5--7--8--|-------------|------5--(5)---7-8--|-10--12--13--12--|
|-4-----------|-------------|--------------------|-----------------|
|-------------|-------------|--------------------|-----------------|
|-------------|-------------|--------------------|-----------------|
|-------------|-------------|--------------------|-----------------|


   Q   Q   Q   Q     Q   Q   Q   Q     E  E  Q   +H        +H      +Q   Q
|-----------------|-----------------|-------------------|------------------|
|-----------------|-----------------|-------------------|------------------|
|-----------------|-----------------|-------------------|------------------|
|-----14--16--17--|-----------------|-------21--(21)----|-(21)----(21)-----|
|-14--------------|-19--21--22--24--|-22-24-------------|------------------|
|-----------------|-----------------|-------------------|------------------|


   Q   Q   Q   Q     Q   Q   Q   Q     +Q    Q   E  E  Q    Q  Q  Q  Q
|-----------------|-----------------|---------------------|-------------|
|-----------------|-----------------|-----------10-12-10--|-8--7--------|
|---------19--18--|-16--14--12--11--|-(11)--12------------|-------8-----|
|-21--21----------|-----------------|---------------------|----------9--|
|-----------------|-----------------|---------------------|-------------|
|-----------------|-----------------|---------------------|-------------|


  E  E  Q   +Q    E E   E E E E Q  Q    Q  Q  Q  Q    Q  Q  Q  Q
|---------------------|---------------|-------------|-7--5--3--2--|
|-8-10-12--(12)--10-8-|-7-5-4-5-7--5--|----5--7--8--|-------------|
|---------------------|---------------|-4-----------|-------------|
|---------------------|---------------|-------------|-------------|
|---------------------|---------------|-------------|-------------|
|---------------------|---------------|-------------|-------------|


  +Q   Q  +S  S E Q     Q   Q   Q   Q     Q   Q   Q   Q     Q   Q   Q   Q
|-(2)----------------|-----------------|-----------------|------------------|
|------5--(5)---7-8--|-10--12--13--12--|-----------------|------------------|
|--------------------|-----------------|-----------------|------------------|
|--------------------|-----------------|-----14--16--17--|------------------|
|--------------------|-----------------|-14--------------|-19--21--22--24---|
|--------------------|-----------------|-----------------|------------------|


   E  E  Q   +H        +H      +Q   Q     Q   Q   Q   Q     Q   Q   Q   Q
|-------------------|------------------|-----------------|-----------------|
|-------------------|------------------|-----------------|-----------------|
|-------------------|------------------|---------19--18--|-16--14--12--11--|
|-------21--(21)----|-(21)----(21)-----|-21--21----------|-----------------|
|-22-24-------------|------------------|-----------------|-----------------|
|-------------------|------------------|-----------------|-----------------|


   +Q    Q   E  E  Q    Q  Q  Q  Q    E  E  Q   +Q    E E   E E E E Q  Q
|---------------------|-------------|---------------------|---------------*|
|-----------10-12-10--|-8--7--------|-8-10-12--(12)--10-8-|-7-5-4-5-7--5--*|
|-(11)--12------------|-------8-----|---------------------|---------------*|
|---------------------|----------9--|---------------------|---------------*|
|---------------------|-------------|---------------------|---------------*|
|---------------------|-------------|---------------------|---------------*|
Добавлено: 27.06.2015
Другие материалы по этой песне:
  • Аккорды и текст

Страница создана 27.06.2015
http://primanota.ru/draenor/rise-my-king-chords.htm
Привет, Гость.
Предлагаем пройти революционный курс по гитаре.
Подарок от PrimaNota.Ru, забирай!