PrimaNota.ru - самый крупный в мире бесплатный архив песенных текстов, аккордов, табулатур и нот


Draenor - Our Memories - таба, видео

Регистрация Запомнить меня
Войти через:  Facebook Google Twitter Vk Yandex Mail.ru

Draenor - Our Memories - таба, видео

Печатать
Просмотров: 128
Our Memories by Draenor
Official Tab

Gtr I (D A D G B E) - Pizzicato

  Q=120
 4/4
  Gtr I
  S S E S S E S S E S S E   S S E S S E S S E S S E   S S E S S E S S E S S E
|-------------------------|-------------------------|-------------------------|
|-------------------------|-------------------------|-------------------------|
|-------------------------|-------------------------|-------------------------|
|-------2-----------2-----|-------2-----------2-----|-------4-----------4-----|
|-------------------------|-------------------------|-------------------------|
|-0-----------0-----------|-0-----------0-----------|-2-----------2-----------|


  S S E S S E S S E S S E
|----------------------------*|
|----------------------------*|
|----------------------------*|
|-------4-----------4--------*|
|----------------------------*|
|-2-----------2--------------*|

play throughout the whole song
Добавлено: 27.06.2015
Другие материалы по этой песне:
  • Аккорды и текст

Страница создана 27.06.2015
http://primanota.ru/draenor/our-memories-chords.htm
Привет, Гость.
Предлагаем пройти революционный курс по гитаре.
Подарок от PrimaNota.Ru, забирай!