PrimaNota.ru - самый крупный в мире бесплатный архив песенных текстов, аккордов, табулатур и нот


Draenor - Gone With The Wind - таба, видео

Регистрация Запомнить меня
Войти через:  Facebook Google Twitter Vk Yandex Mail.ru

Draenor - Gone With The Wind - таба, видео

Печатать
Просмотров: 91
Gone With the Wind by Draenor
Official Tab
From Beyond Temptations

Gtr I (E A D G B E) - 'Guitar'

  Q=109
 4/4
  Gtr I
  E E E S S E E E E   E E E E E E E E   E E E S S E E E E   E E E E E E E E
|-----------3-6-6-6-|-----------------|-----------3-6-6-6-|------------------|
|---------4---------|---------4-4-----|---------4---------|---------4-4------|
|-------------------|-------------5-5-|-------------------|-------------5-5--|
|-------------------|-5-5-5-5---------|-------------------|-5-5-5-5----------|
|-3-3-3-3-----------|-----------------|-3-3-3-3-----------|------------------|
|-------------------|-----------------|-------------------|------------------|


  E E E S S E E E E   E E E E E E E E   E E E S S E E E E   E E E E E E E E
|-----------3-6-6-6-|-----------------|-----------3-6-6-6-|-----------------|
|---------4---------|---------4-4-----|---------4---------|---------4-4-----|
|-------------------|-------------5-5-|-------------------|-------------5-5-|
|-------------------|-5-5-5-5---------|-------------------|-5-5-5-5---------|
|-3-3-3-3-----------|-----------------|-3-3-3-3-----------|-----------------|
|-------------------|-----------------|-------------------|-----------------|


  E E E S S E E E E   E E E E E E E E   E E E S S E E E E   E E E E E E E E
|-----------3-6-6-6-|-----------------|-----------3-6-6-6-|-----------------|
|---------4---------|---------4-4-----|---------4---------|---------4-4-----|
|-------------------|-------------5-5-|-------------------|-------------5-5-|
|-------------------|-5-5-5-5---------|-------------------|-5-5-5-5---------|
|-3-3-3-3-----------|-----------------|-3-3-3-3-----------|-----------------|
|-------------------|-----------------|-------------------|-----------------|


  E E E S S E E E E   E E E E E E E E   E E E S S E E E E   E E E E E E E E
|-----------3-6-6-6-|-----------------|-----------3-6-6-6-|-----------------|
|---------4---------|---------4-4-----|---------4---------|---------4-4-----|
|-------------------|-------------5-5-|-------------------|-------------5-5-|
|-------------------|-5-5-5-5---------|-------------------|-5-5-5-5---------|
|-3-3-3-3-----------|-----------------|-3-3-3-3-----------|-----------------|
|-------------------|-----------------|-------------------|-----------------|


  E E E S S E E E E   E E E E E E E E   E E E S S E E E E   E E E E E E E E
|-----------3-6-6-6-|-----------------|-----------3-6-6-6-|-----------------|
|---------4---------|---------4-4-----|---------4---------|---------4-4-----|
|-------------------|-------------5-5-|-------------------|-------------5-5-|
|-------------------|-5-5-5-5---------|-------------------|-5-5-5-5---------|
|-3-3-3-3-----------|-----------------|-3-3-3-3-----------|-----------------|
|-------------------|-----------------|-------------------|-----------------|


  E E E S S E E E E   E E E E E E E E   E E E S S E E E E   E E E E E E E E
|-----------3-6-6-6-|-----------------|-----------3-6-6-6-|-----------------*|
|---------4---------|---------4-4-----|---------4---------|---------4-4-----*|
|-------------------|-------------5-5-|-------------------|-------------5-5-*|
|-------------------|-5-5-5-5---------|-------------------|-5-5-5-5---------*|
|-3-3-3-3-----------|-----------------|-3-3-3-3-----------|-----------------*|
|-------------------|-----------------|-------------------|-----------------*|

Gtr II (E A D G B E) - 'Guitar 2'

  Q=109
 4/4
  Gtr I
  E E E S S E E E E   E E E E E  E  E  E
|-----------3-6-6-6-|-----------11-------|
|---------4---------|-8-8-8-8------------|
|-------------------|---------8----------|
|-------------------|--------------10-10-|
|-3-3-3-3-----------|--------------------|
|-------------------|--------------------|


  E E E S S E E E E   E E E E E  E  E  E
|-------------6-6-6-|-----------11--------|
|-----------8-------|-8-8-8-8-------------|
|---------8---------|---------8-----------|
|-------------------|--------------10-10--|
|-------------------|---------------------|
|-8-8-8-8-----------|---------------------|


  E E E S S E E E E   E E E E E  E  E  E
|-------------6-6-6-|-----------11-------|
|-----------8-------|-8-8-8-8------------|
|---------8---------|---------8----------|
|-------------------|--------------10-10-|
|-------------------|--------------------|
|-8-8-8-8-----------|--------------------|


  E E E S S E E E E   E E E E E  E  E  E
|-------------6-6-6-|-----------11-------|
|-----------8-------|-8-8-8-8------------|
|---------8---------|---------8----------|
|-------------------|--------------10-10-|
|-------------------|--------------------|
|-8-8-8-8-----------|--------------------|


  E E E S S E E E E   E E E E E  E  E  E
|-------------6-6-6-|-----------11-------|
|-----------8-------|-8-8-8-8------------|
|---------8---------|---------8----------|
|-------------------|--------------10-10-|
|-------------------|--------------------|
|-8-8-8-8-----------|--------------------|


  E E E S S E E E E   E E E E E  E  E  E
|-------------6-6-6-|-----------11-------|
|-----------8-------|-8-8-8-8------------|
|---------8---------|---------8----------|
|-------------------|--------------10-10-|
|-------------------|--------------------|
|-8-8-8-8-----------|--------------------|


  E E E S S E E E E   E E E E E  E  E  E
|-------------6-6-6-|-----------11-------|
|-----------8-------|-8-8-8-8------------|
|---------8---------|---------8----------|
|-------------------|--------------10-10-|
|-------------------|--------------------|
|-8-8-8-8-----------|--------------------|


  E E E S S E E E E   E E E E E  E  E  E
|-------------6-6-6-|-----------11-------|
|-----------8-------|-8-8-8-8------------|
|---------8---------|---------8----------|
|-------------------|--------------10-10-|
|-------------------|--------------------|
|-8-8-8-8-----------|--------------------|


  E E E S S E E E E   E E E E E  E  E  E
|-------------6-6-6-|-----------11-------|
|-----------8-------|-8-8-8-8------------|
|---------8---------|---------8----------|
|-------------------|--------------10-10-|
|-------------------|--------------------|
|-8-8-8-8-----------|--------------------|


  E E E S S E E E E   E E E E E  E  E  E
|-------------6-6-6-|-----------11-------|
|-----------8-------|-8-8-8-8------------|
|---------8---------|---------8----------|
|-------------------|--------------10-10-|
|-------------------|--------------------|
|-8-8-8-8-----------|--------------------|


  E E E S S E E E E   E E E E E  E  E  E
|-------------6-6-6-|-----------11-------|
|-----------8-------|-8-8-8-8------------|
|---------8---------|---------8----------|
|-------------------|--------------10-10-|
|-------------------|--------------------|
|-8-8-8-8-----------|--------------------|


  E E E S S E E E E   E E E E E  E  E  E
|-------------6-6-6-|-----------11-------*|
|-----------8-------|-8-8-8-8------------*|
|---------8---------|---------8----------*|
|-------------------|--------------10-10-*|
|-------------------|--------------------*|
|-8-8-8-8-----------|--------------------*|
Добавлено: 27.06.2015
Другие материалы по этой песне:
  • Аккорды и текст

Страница создана 27.06.2015
http://primanota.ru/draenor/gone-with-wind-chords.htm
Привет, Гость.
Предлагаем пройти революционный курс по гитаре.
Подарок от PrimaNota.Ru, забирай!