PrimaNota.ru - самый крупный в мире бесплатный архив песенных текстов, аккордов, табулатур и нот


Draenor - The Demon Rises - таба, видео

Регистрация Запомнить меня
Войти через:  Facebook Google Twitter Vk Yandex Mail.ru

Draenor - The Demon Rises - таба, видео

Печатать
Просмотров: 121
The Demon Rises by Draenor
Official Tab
Beyond Temptations

Gtr I (E A D G B E) - 'Intro Guitar' - Guitar

  Q=120
 4/4
  Gtr I
  H    +Q.   E   H    +Q   +S  S E   H    +Q.   E   H    +Q   +S  S E
|--------------|-0----(0)--(0)-----|--------------|-0----(0)--(0)------|
|-1----(1)-----|-------------------|-1----(1)-----|--------------------|
|--------------|-------------------|--------------|--------------------|
|--------------|-------------------|--------------|--------------------|
|--------------|-------------------|--------------|--------------------|
|--------------|-------------------|--------------|--------------------|


  H    +Q   +S  S E   H    +Q   +S  S E   H    +Q   +S  S E   H.      Q
|-------------------|-------------------|-5----(5)--(5)-----|-------------|
|-2----(2)--(2)-----|-1----(1)--(1)-----|-------------------|-7-----------|
|-------------------|-------------------|-------------------|-------------|
|-------------------|-------------------|-------------------|-------------|
|-------------------|-------------------|-------------------|-------------|
|-------------------|-------------------|-------------------|-------------|


  H    +Q   +S  S E   H    +Q   +S  S E
|-------------------|-------------------|
|-6----(6)--(6)-----|-5----(5)--(5)-----|
|-------------------|-------------------|
|-------------------|-------------------|
|-------------------|-------------------|
|-------------------|-------------------|


  H    +Q   +S  S E   H    +Q   +S  S E
|-------------------|-------------------|
|-5----(5)--(5)-----|-------------------|
|-------------------|-5----(5)--(5)-----|
|-------------------|-------------------|
|-------------------|-------------------|
|-------------------|-------------------|


  H    +Q.   E   H    +Q   +S  S E   H.      Q    H    +Q   +S  S E
|--------------|-------------------|------------|-------------------|
|-5----(5)-----|-------------------|-5----------|-------------------|
|--------------|-5----(5)--(5)-----|------------|-6----(6)--(6)-----|
|--------------|-------------------|------------|-------------------|
|--------------|-------------------|------------|-------------------|
|--------------|-------------------|------------|-------------------|


  H    +Q   +S  S E   H.      Q    H    +Q   +S  S E   H    +Q   +S  S E
|-------------------|-5----------|-------------------|-5----(5)--(5)------|
|-7----(7)--(7)-----|------------|-7----(7)--(7)-----|--------------------|
|-------------------|------------|-------------------|--------------------|
|-------------------|------------|-------------------|--------------------|
|-------------------|------------|-------------------|--------------------|
|-------------------|------------|-------------------|--------------------|


  H    +Q.   E   H    +Q   +S  S E   H.      Q    H    +Q   +S  S E
|--------------|-------------------|-6----------|-6----(6)--(6)-----|
|-6----(6)-----|-------------------|------------|-------------------|
|--------------|-5----(5)--(5)-----|------------|-------------------|
|--------------|-------------------|------------|-------------------|
|--------------|-------------------|------------|-------------------|
|--------------|-------------------|------------|-------------------|


  H    +Q   +S  S E   H    +Q   +S  S E   H    +Q   +S  S E   H    +Q.   E
|-6----(6)--(6)-----|-------------------|-------------------|---------------|
|-------------------|-7----(7)--(7)-----|-5----(5)--(5)-----|-7----(7)------|
|-------------------|-------------------|-------------------|---------------|
|-------------------|-------------------|-------------------|---------------|
|-------------------|-------------------|-------------------|---------------|
|-------------------|-------------------|-------------------|---------------|


  H    +Q.   E
|-----------------*|
|-5----(5)--------*|
|-----------------*|
|-----------------*|
|-----------------*|
|-----------------*|


Gtr I (E A D G B E) - 'Guitar, Lute & Flute 1 & 2' - Baroque Guitar, Lute & Flute

(after drum roll and church bell acts as both parts)

  Q=120
 4/4
  Gtr I
  S S S S S S S S S E S S S E   S S S S S S S S S S S S S S S S
|-----------------------------|-2---2-2-2---2---1---1-1-1---1---|
|-1---1-1-1---1---1---1---1-1-|---------------------------------|
|-----------------------------|---------------------------------|
|-----------------------------|---------------------------------|
|-----------------------------|---------------------------------|
|-----------------------------|---------------------------------|


  S S S S S S S S S E S S S E   S S S S S S S S S S S S S S S S
|-----------------------------|-2---2-2-2---2---1---1-1-1---1----|
|-1---1-1-1---1---1---1---1-1-|----------------------------------|
|-----------------------------|----------------------------------|
|-----------------------------|----------------------------------|
|-----------------------------|----------------------------------|
|-----------------------------|----------------------------------|


  S S S S S S S S S E S S S S S   S S S S S S S S S S S S S S S S
|-------------------------------|-2---2-2-2---2---1---1-1-1---1---|
|-1---1-1-1---1---1---1---1-1---|---------------------------------|
|-------------------------------|---------------------------------|
|-------------------------------|---------------------------------|
|-------------------------------|---------------------------------|
|-------------------------------|---------------------------------|


  S S S S S S S S S E S S S E   S S S S S S S S S S S S S S S S
|-----------------------------|-2---2-2-2---2---1---1-1-1---1----|
|-1---1-1-1---1---1---1---1-1-|----------------------------------|
|-----------------------------|----------------------------------|
|-----------------------------|----------------------------------|
|-----------------------------|----------------------------------|
|-----------------------------|----------------------------------|


  S S S S S S S S S E S S S E   S S S S S S S S S S S S S S S S
|-----------------------------|-2---2-2-2---2---1---1-1-1---1----|
|-1---1-1-1---1---1---1---1-1-|----------------------------------|
|-----------------------------|----------------------------------|
|-----------------------------|----------------------------------|
|-----------------------------|----------------------------------|
|-----------------------------|----------------------------------|


  S S S S S S S S S E S S S E   S S S S S S S S S S S S S S S S
|-----------------------------|-2---2-2-2---2---1---1-1-1---1----|
|-1---1-1-1---1---1---1---1-1-|----------------------------------|
|-----------------------------|----------------------------------|
|-----------------------------|----------------------------------|
|-----------------------------|----------------------------------|
|-----------------------------|----------------------------------|


  S S S S S S S S S E S S S E   S S S S S S S S S S S S S S S S
|-----------------------------|-2---2-2-2---2---1---1-1-1---1----|
|-1---1-1-1---1---1---1---1-1-|----------------------------------|
|-----------------------------|----------------------------------|
|-----------------------------|----------------------------------|
|-----------------------------|----------------------------------|
|-----------------------------|----------------------------------|


  S S S S S S S S S E S S S S S   S S S S S S S S S S S S S S S S
|-------------------------------|-2---2-2-2---2---1---1-1-1---1---|
|-1---1-1-1---1---1---1---1-1---|---------------------------------|
|-------------------------------|---------------------------------|
|-------------------------------|---------------------------------|
|-------------------------------|---------------------------------|
|-------------------------------|---------------------------------|


  S S S S S S S S S E S S S E   S S S S S S S S S S S S S S S S
|-----------------------------|-2---2-2-2---2---1---1-1-1---1----|
|-1---1-1-1---1---1---1---1-1-|----------------------------------|
|-----------------------------|----------------------------------|
|-----------------------------|----------------------------------|
|-----------------------------|----------------------------------|
|-----------------------------|----------------------------------|


  S S S S S S S S S E S S S S S   S S S S S S S S S S S S S S S S
|-------------------------------|-2---2-2-2---2---1---1-1-1---1---|
|-1---1-1-1---1---1---1---1-1---|---------------------------------|
|-------------------------------|---------------------------------|
|-------------------------------|---------------------------------|
|-------------------------------|---------------------------------|
|-------------------------------|---------------------------------|


  S S S S S S S S S E S S S E   S S S S S S S S S S S S S S S S
|-----------------------------|-2---2-2-2---2---1---1-1-1---1----|
|-1---1-1-1---1---1---1---1-1-|----------------------------------|
|-----------------------------|----------------------------------|
|-----------------------------|----------------------------------|
|-----------------------------|----------------------------------|
|-----------------------------|----------------------------------|


  S S S S S S S S S E S S S S S   S S S S S S S S S S S S S S S S
|-------------------------------|-2---2-2-2---2---1---1-1-1---1---|
|-1---1-1-1---1---1---1---1-1---|---------------------------------|
|-------------------------------|---------------------------------|
|-------------------------------|---------------------------------|
|-------------------------------|---------------------------------|
|-------------------------------|---------------------------------|


  S S S S S S S S S E S S S E   S S S S S S S S S S S S S S S S
|-----------------------------|-2---2-2-2---2---1---1-1-1---1----|
|-1---1-1-1---1---1---1---1-1-|----------------------------------|
|-----------------------------|----------------------------------|
|-----------------------------|----------------------------------|
|-----------------------------|----------------------------------|
|-----------------------------|----------------------------------|


  S S S S S S S S S E S S S E   S S S S S S S S S S S S S S S S
|-----------------------------|-2---2-2-2---2---1---1-1-1---1----*|
|-1---1-1-1---1---1---1---1-1-|----------------------------------*|
|-----------------------------|----------------------------------*|
|-----------------------------|----------------------------------*|
|-----------------------------|----------------------------------*|
|-----------------------------|----------------------------------*|

Gtr II (E A D G B E) - 'Flute' - Flute
(this part is in between the guitar parts and isn't a guitar part doesn't need to be 
played also plays during the outro)
  Q=120
 4/4
  Gtr I
  Q  Q  Q  Q    Q  Q  Q  Q    Q   Q  Q  Q    E E E E H
|-5--7--5--3--|-1--3--5--7--|-8--10--8--7--|-7-8-7-8-7----*|
|-------------|-------------|--------------|--------------*|
|-------------|-------------|--------------|--------------*|
|-------------|-------------|--------------|--------------*|
|-------------|-------------|--------------|--------------*|
|-------------|-------------|--------------|--------------*|

Gtr I (E A D G B E) - 'Lute 3' Lute
Played during part 3

  Q=120
 4/4
  Gtr I
  S S S S S S  S S  S S  S S  S S  S S
|-----8---8----------------------------|
|-1---------------------11---13--------|
|--------------------------------------|
|-------------10---10------------------|
|---------------------------------15---|
|--------------------------------------|


   S S  S S  S S  S S  S S  S S  S S  S S
|------------------------------------------|
|------13----------------------------------|
|-14--------14---14---14---15---14---14----|
|------------------------------------------|
|------------------------------------------|
|------------------------------------------|


   S S  S S  S S  S S  S S  S S  S S  S S
|-----------------------------------------|
|-----------------------------------------|
|------17------------------15-------------|
|-16--------16---16---16--------16---16---|
|-----------------------------------------|
|-----------------------------------------|


   S S  S S  S S  S S  S S  S S  S S  S S
|-----------------------------------------|
|-----------------------------------------|
|------17------------------15-------------|
|-----------------------------------------|
|-16--------16---16---16--------16---16---|
|-----------------------------------------|


   S S  S S  S S  S S  S S  S S  S S  S S
|-----------------------------------------|
|------13---11---11---11---11---11---11---|
|-15--------------------------------------|
|-----------------------------------------|
|-----------------------------------------|
|-----------------------------------------|


  S S S S S S S S  S S  S S  S S  S S
|-----8-------------------------------|
|----------------------11---10---10---|
|-9-------9---9-----------------------|
|-----------------11------------------|
|-------------------------------------|
|-------------------------------------|


   S S S S S S  S S  S S  S S  S S  S S
|------8---8----------------------------|
|------------------------11---13--------|
|---------------------------------------|
|-10-----------10---10------------------|
|----------------------------------15---|
|---------------------------------------|


   S S  S S  S S  S S  S S  S S  S S  S S
|-----------------------------------------|
|-----------------------------------------|
|------17------------------15-------------|
|-16--------16---16---16--------16---16---|
|-----------------------------------------|
|-----------------------------------------|


   S S  S S  S S  S S  S S  S S  S S  S S
|-----------------------------------------|
|------13---13------------------13--------|
|--------------------------15-------------|
|-----------------------------------------|
|-15-------------15---15-------------15---|
|-----------------------------------------|


   S S  S S  S S  S S  S S  S S  S S  S S
|-----------------------------------------|
|------13---------------------------------|
|-14--------14---14---14---15---14---14---|
|-----------------------------------------|
|-----------------------------------------|
|-----------------------------------------|


   S S  S S  S S  S S  S S  S S  S S  S S
|-----------------------------------------|
|-----------------------------------------|
|------17------------------15-------------|
|-16--------16---16---16--------16---16---|
|-----------------------------------------|
|-----------------------------------------|


   S S  S S  S S  S S  S S  S S  S S  S S
|-----------------------------------------|
|-----------------------------------------|
|------17------------------15-------------|
|-----------------------------------------|
|-16--------16---16---16--------16---16---|
|-----------------------------------------|


   S S  S S  S S  S S  S S  S S  S S  S S
|-----------------------------------------|
|------13---11---11---11---11---11---11---|
|-15--------------------------------------|
|-----------------------------------------|
|-----------------------------------------|
|-----------------------------------------|


  S S S S S S S S  S S  S S  S S  S S
|-----8-------------------------------|
|----------------------11---10---10---|
|-9-------9---9-----------------------|
|-----------------11------------------|
|-------------------------------------|
|-------------------------------------|


   S S S S S S  S S  S S  S S  S S  S S
|------8---8----------------------------|
|------------------------11---13--------|
|---------------------------------------|
|-10-----------10---10------------------|
|----------------------------------15---|
|---------------------------------------|


   S S  S S  S S  S S  S S  S S  S S  S S
|-----------------------------------------|
|-----------------------------------------|
|------17------------------15-------------|
|-16--------16---16---16--------16---16---|
|-----------------------------------------|
|-----------------------------------------|


   S S  S S  S S  S S  S S  S S  S S  S S
|-----------------------------------------|
|------13---13------------------13--------|
|--------------------------15-------------|
|-----------------------------------------|
|-15-------------15---15-------------15---|
|-----------------------------------------|


   S S  S S  S S  S S  S S  S S  S S  S S
|-----------------------------------------|
|------13---------------------------------|
|-14--------14---14---14---15---14---14---|
|-----------------------------------------|
|-----------------------------------------|
|-----------------------------------------|


   S S  S S  S S  S S  S S  S S  S S  S S
|-----------------------------------------|
|-----------------------------------------|
|------17------------------15-------------|
|-16--------16---16---16--------16---16---|
|-----------------------------------------|
|-----------------------------------------|


   S S  S S  S S  S S  S S  S S  S S  S S
|-----------------------------------------|
|-----------------------------------------|
|------17------------------15-------------|
|-----------------------------------------|
|-16--------16---16---16--------16---16---|
|-----------------------------------------|


   S S  S S  S S  S S  S S  S S  S S  S S
|-----------------------------------------|
|------13---11---11---11---11---11---11---|
|-15--------------------------------------|
|-----------------------------------------|
|-----------------------------------------|
|-----------------------------------------|


  S S S S S S S S  S S  S S  S S  S S
|-----8-------------------------------|
|----------------------11---10---10---|
|-9-------9---9-----------------------|
|-----------------11------------------|
|-------------------------------------|
|-------------------------------------|


   S S S S S S  S S  S S  S S  S S  S S
|------8---8----------------------------|
|------------------------11---13--------|
|---------------------------------------|
|-10-----------10---10------------------|
|----------------------------------15---|
|---------------------------------------|


   S S  S S  S S  S S  S S  S S  S S  S S
|-----------------------------------------|
|-----------------------------------------|
|------17------------------15-------------|
|-16--------16---16---16--------16---16---|
|-----------------------------------------|
|-----------------------------------------|


   S S  S S  S S  S S  S S  S S  S S  S S
|-----------------------------------------|
|------13---13------------------13--------|
|--------------------------15-------------|
|-----------------------------------------|
|-15-------------15---15-------------15---|
|-----------------------------------------|


   S S  S S  S S  S S  S S  S S  S S  S S
|-----------------------------------------|
|------13---------------------------------|
|-14--------14---14---14---15---14---14---|
|-----------------------------------------|
|-----------------------------------------|
|-----------------------------------------|


   S S  S S  S S  S S  S S  S S  S S  S S
|-----------------------------------------|
|-----------------------------------------|
|------17------------------15-------------|
|-16--------16---16---16--------16---16---|
|-----------------------------------------|
|-----------------------------------------|


   S S  S S  S S  S S  S S  S S  S S  S S
|-----------------------------------------*|
|-----------------------------------------*|
|------17------------------15-------------*|
|-----------------------------------------*|
|-16--------16---16---16--------16---16---*|
|-----------------------------------------*|

Gtr II (E A D G B E) - 'Guitar 3' Baroque Guitar
played during part 3

  Q=120
 4/4
  Gtr I
  S S E S S E S S E S S S S   S S E S S E S S E S S S S
|-------------0---0-1---1---|-2-----2-----5---5-----6---|
|-1-----1-------------------|---------------------------|
|---------------------------|-------------------5-------|
|---------------------------|---------------------------|
|---------------------------|---------------------------|
|---------------------------|---------------------------|


  S S E S S E S S E S S S S   S S E S S E S S E S S S S
|---------------------------|-------------5---5----------|
|-------------5---5-6---6---|-7-----7-----------5---5----|
|-5-----5-------------------|----------------------------|
|---------------------------|----------------------------|
|---------------------------|----------------------------|
|---------------------------|----------------------------|


  S S E S S E S S E S S S S   S S E S S E S S E S S S S
|---------------------------|-------------5---5-----6----|
|-------------5---5-6---6---|-7-----7--------------------|
|-5-----5-------------------|-------------------5--------|
|---------------------------|----------------------------|
|---------------------------|----------------------------|
|---------------------------|----------------------------|


  S S E S S E S S E S S S S   S S E S S E S S E S S S S
|---------------------------|-------------5---5----------|
|-------------5---5-6---6---|-7-----7-----------5---5----|
|-5-----5-------------------|----------------------------|
|---------------------------|----------------------------|
|---------------------------|----------------------------|
|---------------------------|----------------------------|


  S S E S S E S S E S S S S   S S E S S E S S E S S S S
|---------------------------|-------------5---5-----6----|
|-------------5---5-6---6---|-7-----7--------------------|
|-5-----5-------------------|-------------------5--------|
|---------------------------|----------------------------|
|---------------------------|----------------------------|
|---------------------------|----------------------------|


  S S E S S E S S E S S S S   S S E S S E S S E S S S S
|---------------------------|-------------5---5----------|
|-------------5---5-6---6---|-7-----7-----------5---5----|
|-5-----5-------------------|----------------------------|
|---------------------------|----------------------------|
|---------------------------|----------------------------|
|---------------------------|----------------------------|


  S S E S S E S S E S S S S   S S E S S E S S E S S S S
|---------------------------|-------------5---5-----6----|
|-------------5---5-6---6---|-7-----7--------------------|
|-5-----5-------------------|-------------------5--------|
|---------------------------|----------------------------|
|---------------------------|----------------------------|
|---------------------------|----------------------------|


  S S E S S E S S E S S S S   S S E S S E S S E S S S S
|---------------------------|-------------5---5----------|
|-------------5---5-6---6---|-7-----7-----------5---5----|
|-5-----5-------------------|----------------------------|
|---------------------------|----------------------------|
|---------------------------|----------------------------|
|---------------------------|----------------------------|


  S S E S S E S S E S S S S   S S E S S E S S E S S S S
|---------------------------|-------------5---5-----6----|
|-------------5---5-6---6---|-7-----7--------------------|
|-5-----5-------------------|-------------------5--------|
|---------------------------|----------------------------|
|---------------------------|----------------------------|
|---------------------------|----------------------------|


  S S E S S E S S E S S S S   S S E S S E S S E S S S S
|---------------------------|-------------5---5----------|
|-------------5---5-6---6---|-7-----7-----------5---5----|
|-5-----5-------------------|----------------------------|
|---------------------------|----------------------------|
|---------------------------|----------------------------|
|---------------------------|----------------------------|


  S S E S S E S S E S S S S   S S E S S E S S E S S S S
|---------------------------|-------------5---5-----6----|
|-------------5---5-6---6---|-7-----7--------------------|
|-5-----5-------------------|-------------------5--------|
|---------------------------|----------------------------|
|---------------------------|----------------------------|
|---------------------------|----------------------------|


  S S E S S E S S E S S S S   S S E S S E S S E S S S S
|---------------------------|-------------5---5----------|
|-------------5---5-6---6---|-7-----7-----------5---5----|
|-5-----5-------------------|----------------------------|
|---------------------------|----------------------------|
|---------------------------|----------------------------|
|---------------------------|----------------------------|


  S S E S S E S S E S S S S   S S E S S E S S E S S S S
|---------------------------|-------------5---5-----6----|
|-------------5---5-6---6---|-7-----7--------------------|
|-5-----5-------------------|-------------------5--------|
|---------------------------|----------------------------|
|---------------------------|----------------------------|
|---------------------------|----------------------------|


  S S E S S E S S E S S S S   S S E S S E S S E S S S S
|---------------------------|-------------5---5----------*|
|-------------5---5-6---6---|-7-----7-----------5---5----*|
|-5-----5-------------------|----------------------------*|
|---------------------------|----------------------------*|
|---------------------------|----------------------------*|
|---------------------------|----------------------------*|

Gtr II (E A D G B E) - 'Flute' - Flute
(this part is in between the guitar parts and isn't a guitar part doesn't need to be 
played also plays during the outro)
  Q=120
 4/4
  Gtr I
  Q  Q  Q  Q    Q  Q  Q  Q    Q   Q  Q  Q    E E E E H
|-5--7--5--3--|-1--3--5--7--|-8--10--8--7--|-7-8-7-8-7----*|
|-------------|-------------|--------------|--------------*|
|-------------|-------------|--------------|--------------*|
|-------------|-------------|--------------|--------------*|
|-------------|-------------|--------------|--------------*|
|-------------|-------------|--------------|--------------*|
Добавлено: 27.06.2015
Другие материалы по этой песне:
  • Аккорды и текст

Страница создана 27.06.2015
http://primanota.ru/draenor/demon-rises-chords.htm
Привет, Гость.
Предлагаем пройти революционный курс по гитаре.
Подарок от PrimaNota.Ru, забирай!