PrimaNota.ru - самый крупный в мире бесплатный архив песенных текстов, аккордов, табулатур и нот


Draenor - Crystalline Palace - таба, видео

Регистрация Запомнить меня
Войти через:  Facebook Google Twitter Vk Yandex Mail.ru

Draenor - Crystalline Palace - таба, видео

Печатать
Просмотров: 115
 Crystalline Palace by Draenor

E Standard EADGBE

Q=80
 4/4 Guitar 1

  Gtr 1 part 1
  Q  Q   Q   Q     Q   Q   Q   Q     Q   Q   Q   Q     Q   Q   Q   Q
|----5--12--17--|-------------15--|-------------17--|-------------15---|
|---------------|---------13------|---------17------|------------------|
|-2-------------|-----------------|-----------------|---------17-------|
|---------------|-----15----------|-----19----------|-----17-----------|
|---------------|-----------------|-----------------|------------------|
|---------------|-17--------------|-17--------------|-17---------------|


   Q   Q   Q   Q     Q   Q   Q   Q     Q   Q   Q   Q     Q   Q   Q   Q
|---------12--17--|-------------15--|---------12--17--|-------------17---||
|-----------------|---------13------|-----------------|---------15------o||
|-----14----------|-----12----------|-----14----------|-----14-----------||
|-----------------|-----------------|-----------------|------------------||
|-----------------|-----------------|-----------------|-----------------o||
|-13--------------|-13--------------|-13--------------|-13---------------|| (x3)

  Gtr I part 2
  Q  Q   Q   Q     Q   Q   Q   Q     Q   Q   Q   Q     Q   Q   Q   Q
|----5--12--17--|-------------15--|-------------17--|-------------15---|
|---------------|---------13------|---------17------|------------------|
|-2-------------|-----------------|-----------------|---------17-------|
|---------------|-----15----------|-----19----------|-----17-----------|
|---------------|-----------------|-----------------|------------------|
|---------------|-17--------------|-17--------------|-17---------------|


   Q   Q   Q   Q     Q   Q   Q   Q     Q   Q   Q   Q     Q   Q   Q   Q
|---------12--17--|-------------15--|---------12--17--|-------------17--*|
|-----------------|---------13------|-----------------|---------15------*|
|-----14----------|-----12----------|-----14----------|-----14----------*|
|-----------------|-----------------|-----------------|-----------------*|
|-----------------|-----------------|-----------------|-----------------*|
|-13--------------|-13--------------|-13--------------|-13--------------*| (x2)

 Gtr 1 part 1
  Q  Q   Q   Q     Q   Q   Q   Q     Q   Q   Q   Q     Q   Q   Q   Q
|----5--12--17--|-------------15--|-------------17--|-------------15---|
|---------------|---------13------|---------17------|------------------|
|-2-------------|-----------------|-----------------|---------17-------|
|---------------|-----15----------|-----19----------|-----17-----------|
|---------------|-----------------|-----------------|------------------|
|---------------|-17--------------|-17--------------|-17---------------|


   Q   Q   Q   Q     Q   Q   Q   Q     Q   Q   Q   Q     Q   Q   Q   Q
|---------12--17--|-------------15--|---------12--17--|-------------17---||
|-----------------|---------13------|-----------------|---------15------o||
|-----14----------|-----12----------|-----14----------|-----14-----------||
|-----------------|-----------------|-----------------|------------------||
|-----------------|-----------------|-----------------|-----------------o||
|-13--------------|-13--------------|-13--------------|-13---------------|| (x3)


  Gtr I part 2
  Q  Q   Q   Q     Q   Q   Q   Q     Q   Q   Q   Q     Q   Q   Q   Q
|----5--12--17--|-------------15--|-------------17--|-------------15---|
|---------------|---------13------|---------17------|------------------|
|-2-------------|-----------------|-----------------|---------17-------|
|---------------|-----15----------|-----19----------|-----17-----------|
|---------------|-----------------|-----------------|------------------|
|---------------|-17--------------|-17--------------|-17---------------|


   Q   Q   Q   Q     Q   Q   Q   Q     Q   Q   Q   Q     Q   Q   Q   Q
|---------12--17--|-------------15--|---------12--17--|-------------17--*|
|-----------------|---------13------|-----------------|---------15------*|
|-----14----------|-----12----------|-----14----------|-----14----------*|
|-----------------|-----------------|-----------------|-----------------*|
|-----------------|-----------------|-----------------|-----------------*|
|-13--------------|-13--------------|-13--------------|-13--------------*| (x1)

  Q=80
 4/4 Guitar 2
  Gtr 2 part 1 (with part 1 of guitar 1)
  E E  E  E  H       +H      +Q.    E
|-----12----------|-------------------|
|---5----12-13----|-(13)----(13)------|
|-2---------------|-------------------|
|-----------------|-------------------|
|-----------------|-------------------|
|-----------------|----------------13-|


   E  E  E  E  +Q.    E    E  E  +Q    +H
|-------12--------------|---------------------|
|----------13-(13)------|----12-(12)--(12)----|
|----12-----------------|---------------------|
|-14--------------------|-14------------------|
|-----------------------|---------------------|
|--------------------15-|---------------------|


   E  E  E  E  H       +W            E  E  E  E  Q.    E    E  E  Q   +H
|-------12----------|-------------|-------13-------------|-------12--(12)----*|
|----------12-13----|-(13)--------|-------------13-------|----12-------------*|
|-------------------|-------------|----10----14----------|-------------------*|
|----14-------------|-------------|----------------------|-14----------------*|
|-12----------------|-------------|-12-------------------|-------------------*|
|-------------------|-------------|-------------------15-|-------------------*|(x3)

 Gtr 2 part 2 (with part 2 of guitar 1)

  W          W          W          W
|----------|----------|----------|------|
|----------|----------|----------|------|
|----------|----------|----------|------|
|----------|----------|----------|------|
|----------|----------|----------|------|
|----------|----------|----------|------|


  Q  Q   Q   Q     Q   Q   Q   Q     Q   Q   Q   Q     Q   Q   Q   Q
|----5--12--17--|-------------15--|---------12--17--|-------------17--*|
|---------------|---------13------|-----------------|---------15------*|
|---------------|-----12----------|-----14----------|-----14----------*|
|-3-------------|-----------------|-----------------|-----------------*|
|---------------|-----------------|-----------------|-----------------*|
|---------------|-13--------------|-13--------------|-13--------------*| (x1)

  Gtr 2 part 3 (with part 2 of guitar 1)
  W          W          Q  Q  +H       W
|----------|----------|-0--5--(5)----|------|
|-1--------|-3--------|-1------------|------|
|-2--------|----------|-2------------|-7----|
|-2--------|-4--------|-2------------|-4----|
|-0--------|----------|-0------------|------|
|----------|----------|--------------|------|


  W          H    H      Q  Q  +H       W
|----------|------5----|----3--(3)----|------*|
|-5--------|-----------|-5------------|-7----*|
|-0--------|-7---------|-5------------|-7----*|
|----------|-4---------|-5------------|-4----*|
|----------|-----------|--------------|------*|
|-8--------|-7---------|-8------------|-7----*| (x1)

  Gtr 2 part 1 (with part 1 of guitar 1)
  E E  E  E  H       +H      +Q.    E
|-----12----------|-------------------|
|---5----12-13----|-(13)----(13)------|
|-2---------------|-------------------|
|-----------------|-------------------|
|-----------------|-------------------|
|-----------------|----------------13-|


   E  E  E  E  +Q.    E    E  E  +Q    +H
|-------12--------------|---------------------|
|----------13-(13)------|----12-(12)--(12)----|
|----12-----------------|---------------------|
|-14--------------------|-14------------------|
|-----------------------|---------------------|
|--------------------15-|---------------------|


   E  E  E  E  H       +W            E  E  E  E  Q.    E    E  E  Q   +H
|-------12----------|-------------|-------13-------------|-------12--(12)----*|
|----------12-13----|-(13)--------|-------------13-------|----12-------------*|
|-------------------|-------------|----10----14----------|-------------------*|
|----14-------------|-------------|----------------------|-14----------------*|
|-12----------------|-------------|-12-------------------|-------------------*|
|-------------------|-------------|-------------------15-|-------------------*|(x3)

 Gtr 2 part 3 (with part 2 of guitar 1)
  W          W          Q  Q  +H       W
|----------|----------|-0--5--(5)----|------|
|-1--------|-3--------|-1------------|------|
|-2--------|----------|-2------------|-7----|
|-2--------|-4--------|-2------------|-4----|
|-0--------|----------|-0------------|------|
|----------|----------|--------------|------|


  W          H    H      Q  Q  +H       W
|----------|------5----|----3--(3)----|------*|
|-5--------|-----------|-5------------|-7----*|
|-0--------|-7---------|-5------------|-7----*|
|----------|-4---------|-5------------|-4----*|
|----------|-----------|--------------|------*|
|-8--------|-7---------|-8------------|-7----*| (x1)

Both guitars are played exactly along with eachother.
Добавлено: 27.06.2015
Другие материалы по этой песне:
  • Аккорды и текст

Страница создана 27.06.2015
http://primanota.ru/draenor/crystalline-palace-chords.htm
Привет, Гость.
Предлагаем пройти революционный курс по гитаре.
Подарок от PrimaNota.Ru, забирай!