PrimaNota.ru - самый крупный в мире бесплатный архив песенных текстов, аккордов, табулатур и нот


Draenor - Chamber Of Kings - таба, видео

Регистрация Запомнить меня
Войти через:  Facebook Google Twitter Vk Yandex Mail.ru

Draenor - Chamber Of Kings - таба, видео

Печатать
Просмотров: 85
  Gtr I
  E E E  E  E  E  E  E    E  E  E  E  E  E  E  E
|-1-----13-------------|-------------------------|
|---2------14----------|----18-------------------|
|-----3-------15-------|-------18-------------22-|
|----------------15----|----------20----------20-|
|-------------------16-|-------------20----------|
|----------------------|-18-------------21-18----|


   E  E E E E E E E   E E E E E  E  E E
|-------------3-----|--------------------|
|---------------4---|-------8------------|
|-------0---------5-|---------8----------|
|---------1---------|-5---------10-------|
|-18--------3-------|---6----------10-6--|
|----20-------------|-----8-----------8--|


  E  E  E  E  E  E  E  E    E  E  E  E  E  E  E  E
|---10-------------------|-------------------------|
|------11-------------15-|----------------15-------|
|---------12-------------|-15----------------15----|
|-5----------12----------|----17----------------17-|
|---------------13-------|-------17----------------|
|------------------15----|----------18-15----------|


   E  E  E  E  E  E  E  E    E  E  E  E  E  E  E  E
|-------------------------|-------------------------|
|----------15-------------|----15-------------------|
|-------------15----------|-------15-------------19-|
|----------------17-------|----------17----------17-|
|-17----------------17----|-------------17----------|
|----18-15-------------18-|-15-------------18-15----|


   E  E  E  E  E  E  E  E    E  E  E  E  E  E  E E
|-------------------------|------------------------|
|----------------16-------|----------16----------0-|
|-16----------------16----|-------------16-------1-|
|----18----------------18-|----------------18------|
|-------18----------------|-18----------------18---|
|----------19-16----------|----19-16---------------|


  E E E E E E E E   E  E  E  E E E E  E
|---3-------------|---------------------|
|-----4---------8-|--------------8------|
|-------5---------|-8--------------8----|
|---------5-------|---10-------------10-|
|-3---------6-----|------10-------------|
|-------------8---|---------11-8--------|


   +Q   Q  H
|---------------*|
|---------------*|
|---------------*|
|-(10)----------*|
|---------------*|
|---------------*|
Добавлено: 27.06.2015
Другие материалы по этой песне:
  • Аккорды и текст

Страница создана 27.06.2015
http://primanota.ru/draenor/chamber-of-kings-chords.htm
Привет, Гость.
Предлагаем пройти революционный курс по гитаре.
Подарок от PrimaNota.Ru, забирай!