PrimaNota.ru - самый крупный в мире бесплатный архив песенных текстов, аккордов, табулатур и нот


Draenor - Bloodline Of The Royal - таба, видео

Регистрация Запомнить меня
Войти через:  Facebook Google Twitter Vk Yandex Mail.ru

Draenor - Bloodline Of The Royal - таба, видео

Печатать
Просмотров: 96
Уроки эстрадного вокала в Санкт-Петербурге
Bloodline of the Royal

Gtr I (E A D G B E) - 'Main Medley' - Violin/Viola, Harpischord, Dulcimer, & Nylon Guitar

  Q=115
 4/4
  Gtr I
  S S S S S S S S S S S S S S S S   S S S S S S S S S S S S S S S S
|---------3-3-3-----------3-3-3---|---------3-3-3-----------3-3-3----|
|-------------3---------------3---|-------------3---------------3----|
|-0-0-0---------------------------|----------------------------------|
|-----0-----------5-5-5-----------|-5-5-5-----------5-5-5------------|
|---------------------5-----------|-----5---------------5------------|
|---------------------------------|----------------------------------|


  S S S S S S S S S S S S S S S S   S S S S S S S S S S S S S S S S
|---------1-1-1-----------1-1-1---|---------1-1-1-----------1-1-1---*|
|-------------1---------------1---|-------------1---------------1---*|
|---------------------------------|---------------------------------*|
|-3-3-3-----------3-3-3-----------|-3-3-3-----------3-3-3-----------*|
|-----3---------------3-----------|-----3---------------3-----------*|
|---------------------------------|---------------------------------*|


Gtr II (E A D G B E) - 'Secondary Medley' Pizzicato Section

  Q=115
 4/4
  Gtr I
  S S S S S S S S S S S S S S S S   S S S S S S S S S S S S S S S S
|---------3-3-3-------------------|----------------------------------|
|-------------3---1-1-1-----------|---------5-5-5-----------5-5-5----|
|-0-0-0---------------0---2-2-2---|-------------4---------------4----|
|-----0-----------------------2---|-2-2-2-----------2-2-2------------|
|---------------------------------|-----2---------------2------------|
|---------------------------------|----------------------------------|


  S S S S  S  S  S S  S  S  S S S S S S
|---------11-11-11----------------------|
|-4-4-4---------11----------------------|
|-----3---------------------------------|
|--------------------10-10-10---8-8-8---|
|--------------------------10-------8---|
|---------------------------------------|


   S  S  S S S S S S  S  S  S S S S S S
|------------8-8-8--------------8-8-8---*|
|----------------8------------------8---*|
|---------------------------------------*|
|-10-10-10-----------10-10-10-----------*|
|-------10-----------------10-----------*|
|---------------------------------------*|
Добавлено: 27.06.2015
Другие материалы по этой песне:
  • Аккорды и текст

Страница создана 27.06.2015
http://primanota.ru/draenor/bloodline-of-royal-chords.htm
Привет, Гость.
Предлагаем пройти революционный курс по гитаре.
Подарок от PrimaNota.Ru, забирай!