PrimaNota.ru - самый крупный в мире бесплатный архив песенных текстов, аккордов, табулатур и нот


Draenor - At The Cost Of Death - таба, видео

Регистрация Запомнить меня
Войти через:  Facebook Google Twitter Vk Yandex Mail.ru

Draenor - At The Cost Of Death - таба, видео

Печатать
Просмотров: 101
Уроки эстрадного вокала в Санкт-Петербурге
At the Cost of Death by Draenor
Official Tab 
"Listen to song to know when to play."

Gtr I (E A D G B E) - 'Main Medley'- Violin/Viola

  Q=100
 4/4
  Gtr I
  S S S S Q  S S S S Q    S S S S Q  S S S S E E   S S S S E E S S S S Q
|-----------------------|------------------------|------------------------|
|-1---1---4-------------|-1---1---4--------------|---------2--------------|
|---------5-------------|---------5--------------|-3---3---3--------------|
|--------------------1--|--------------------1---|------------------------|
|------------3---3---3--|------------3---3---3---|-------------1---1---4--|
|-----------------------|------------------------|---------------------6--|


  S S S S E. S S S S S e. S
|------------------------------*|
|---------2--------------------*|
|-3---3---3--------------------*|
|------------------------------*|
|--------------1---1---4-------*|
|----------------------6-------*|

Gtr II (E A D G B E) - 'Secondary Medley' - Pizzicato

  Q=100
 4/4
  Gtr I
  S S S S S S S S S S S S S S S S   S S S S S S S S S S S S S S S S
|---------------------------------|----------------------------------|
|---------------------------------|----------------------------------|
|---------0-----------0-----------|-0-----------0-----------0--------|
|-----1-----------1-----------1---|---------1-----------1------------|
|-3-----------3-----------3-------|-----3-----------3-----------3----|
|---------------------------------|----------------------------------|


  S S S S S S S S S S S S S S S S   S S S S S S S S S S S S S S S S
|---------------------------------|---------------------------------*|
|---------------------------------|---------------------------------*|
|-----0-----------0-----------0---|---------0-----------0-----------*|
|-1-----------1-----------1-------|-----1-----------1-----------1---*|
|---------3-----------3-----------|-3-----------3-----------3-------*|
|---------------------------------|---------------------------------*|

Gtr III (E A D G B E) - 'Dark Piano Medley' - Grand Piano

  Q=100
 4/4
  Gtr I
  S S S S Q  S S S S Q    S S S S Q  S S S S Q    S S S S Q  S S S S E E
|-----------------------|-----------------------|------------1---1-------|
|-----------------------|------------3---3---3--|---------2----------3---|
|------------3---3---3--|---------3----------3--|-3---3---3----------3---|
|---------1----------4--|-5---5---5-------------|----------------------4-|
|-3---3---3-------------|-----------------------|------------------------|
|-----------------------|-----------------------|------------------------|


  S S S S e. S S S S S e. S
|------------------------------*|
|------------------------------*|
|--------------0---0---0-------*|
|---------1------------1-------*|
|-3---3---3--------------------*|
|------------------------------*|
Добавлено: 27.06.2015
Другие материалы по этой песне:
  • Аккорды и текст

Страница создана 27.06.2015
http://primanota.ru/draenor/at-cost-of-death-chords.htm
Привет, Гость.
Предлагаем пройти революционный курс по гитаре.
Подарок от PrimaNota.Ru, забирай!