PrimaNota.ru - самый крупный в мире бесплатный архив песенных текстов, аккордов, табулатур и нот


Draenor - Approaching End - таба, видео

Регистрация Запомнить меня
Войти через:  Facebook Google Twitter Vk Yandex Mail.ru

Draenor - Approaching End - таба, видео

Печатать
Просмотров: 109
Approaching End by Draenor
Official Tab
From Beyond Temptations
Written by Russell Silva

This song is all guitar overlapped with eachother all parts are played together.

Gtr I (C G C G C E) - 'Guitar 1' - Part 1

  Q=94
 4/4
  Gtr I
  E E Q  E E E E   E E Q  E E E E   E E Q  E E E E   E E Q  E E E E
|----------------|----------------|----------------|-----------------|
|----------------|----------------|----------------|-----------------|
|----------------|----------------|----------------|-----------------|
|---3----6-6---6-|---7------------|---3----6-6---6-|---7-------------|
|----------------|--------5-5---5-|----------------|--------5-5---5--|
|-3---5------6---|-7---7------0---|-3---5------6---|-7---7------0----|


  E E Q  E E E E   E E Q  E E E E   E E Q  E E E E   E E Q  E E E E
|----------------|----------------|----------------|----------------|
|----------------|----------------|----------------|----------------|
|----------------|----------------|----------------|----------------|
|---3----6-6---6-|---7------------|---3----6-6---6-|---7------------|
|----------------|--------5-5---5-|----------------|--------5-5---5-|
|-3---5------6---|-7---7------0---|-3---5------6---|-7---7------0---|


  E E Q  E E E E   E E Q  E E E E   E E Q  E E E E   E E Q  E E E E
|----------------|----------------|----------------|----------------|
|----------------|----------------|----------------|----------------|
|----------------|----------------|----------------|----------------|
|---3----6-6---6-|---7------------|---3----6-6---6-|---7------------|
|----------------|--------5-5---5-|----------------|--------5-5---5-|
|-3---5------6---|-7---7------0---|-3---5------6---|-7---7------0---|


  E E Q  E E E E   E E Q  E E E E   E E Q  E E E E   E E Q  E E E E
|----------------|----------------|----------------|----------------|
|----------------|----------------|----------------|----------------|
|----------------|----------------|----------------|----------------|
|---3----6-6---6-|---7------------|---3----6-6---6-|---7------------|
|----------------|--------5-5---5-|----------------|--------5-5---5-|
|-3---5------6---|-7---7------0---|-3---5------6---|-7---7------0---|


  E E Q  E E E E   E E Q  E E E E   E E Q  E E E E   E E Q  E E E E
|----------------|----------------|----------------|----------------|
|----------------|----------------|----------------|----------------|
|----------------|----------------|----------------|----------------|
|---3----6-6---6-|---7------------|---3----6-6---6-|---7------------|
|----------------|--------5-5---5-|----------------|--------5-5---5-|
|-3---5------6---|-7---7------0---|-3---5------6---|-7---7------0---|


  E E Q  E E E E   E E Q  E E E E   E E Q  E E E E   E E Q  E E E E
|----------------|----------------|----------------|----------------*|
|----------------|----------------|----------------|----------------*|
|----------------|----------------|----------------|----------------*|
|---3----6-6---6-|---7------------|---3----6-6---6-|---7------------*|
|----------------|--------5-5---5-|----------------|--------5-5---5-*|
|-3---5------6---|-7---7------0---|-3---5------6---|-7---7------0---*|

Gtr II (C G C G C E) - 'Guitar 2' - Part 1

  Q=94
 4/4
  Gtr I
  E E Q  E E E E   E E Q  E E E E   E E Q  E E E E   E E Q  E E E E
|----------------|----------------|----------------|-----------------|
|----------------|----------------|----------------|-----------------|
|----------------|----------------|----------------|-----------------|
|---1----3-3---3-|----------------|---1----3-3---3-|-----------------|
|----------------|---5----5-5---5-|----------------|---5----5-5---5--|
|-1---1------3---|-0---0------0---|-1---1------3---|-0---0------0----|


  E E Q  E E E E   E E Q  E E E E   E E Q  E E E E   E E Q  E E E E
|----------------|----------------|----------------|----------------|
|----------------|----------------|----------------|----------------|
|----------------|----------------|----------------|----------------|
|---1----3-3---3-|----------------|---1----3-3---3-|----------------|
|----------------|---5----5-5---5-|----------------|---5----5-5---5-|
|-1---1------3---|-0---0------0---|-1---1------3---|-0---0------0---|


  E E Q  E E E E   E E Q  E E E E   E E Q  E E E E   E E Q  E E E E
|----------------|----------------|----------------|----------------|
|----------------|----------------|----------------|----------------|
|----------------|----------------|----------------|----------------|
|---1----3-3---3-|----------------|---1----3-3---3-|----------------|
|----------------|---5----5-5---5-|----------------|---5----5-5---5-|
|-1---1------3---|-0---0------0---|-1---1------3---|-0---0------0---|


  E E Q  E E E E   E E Q  E E E E   E E Q  E E E E   E E Q  E E E E
|----------------|----------------|----------------|----------------|
|----------------|----------------|----------------|----------------|
|----------------|----------------|----------------|----------------|
|---1----3-3---3-|----------------|---1----3-3---3-|----------------|
|----------------|---5----5-5---5-|----------------|---5----5-5---5-|
|-1---1------3---|-0---0------0---|-1---1------3---|-0---0------0---|


  E E Q  E E E E   E E Q  E E E E   E E Q  E E E E   E E Q  E E E E
|----------------|----------------|----------------|----------------|
|----------------|----------------|----------------|----------------|
|----------------|----------------|----------------|----------------|
|---1----3-3---3-|----------------|---1----3-3---3-|----------------|
|----------------|---5----5-5---5-|----------------|---5----5-5---5-|
|-1---1------3---|-0---0------0---|-1---1------3---|-0---0------0---|


  E E Q  E E E E   E E Q  E E E E   E E Q  E E E E   E E Q  E E E E
|----------------|----------------|----------------|----------------*|
|----------------|----------------|----------------|----------------*|
|----------------|----------------|----------------|----------------*|
|---1----3-3---3-|----------------|---1----3-3---3-|----------------*|
|----------------|---5----5-5---5-|----------------|---5----5-5---5-*|
|-1---1------3---|-0---0------0---|-1---1------3---|-0---0------0---*|

Gtr III (C G C G C E) - 'Guitar 3' - Part 1

  Q=94
 4/4
  Gtr I
  S S S S S S S S S  S S  S S S S  S
|-------9-----------11---11-------11-|
|---1-------1-----------------3------|
|------------------------------------|
|-----1-------1---3-------------3----|
|----------------------8-------------|
|-1-------1-----1-----------3--------|


  S  S  S  S S  S  S S  S  S  S  S S  S  S  S
|----------------------------------------------|
|---------12--------------12----12---------12--|
|----------------------------------------------|
|---12---------12--------------------12--------|
|----------------------------------------------|
|-0----12----0----12-0-12----12----0----12-----|


  S S S S S S S S S  S S  S S S S  S
|-------9-----------11---11-------11-|
|---1-------1-----------------3------|
|------------------------------------|
|-----1-------1---3-------------3----|
|----------------------8-------------|
|-1-------1-----1-----------3--------|


  S  S  S  S S  S  S S  S  S  S  S S  S  S  S
|---------------------------------------------|
|---------12--------------12----12---------12-|
|---------------------------------------------|
|---12---------12--------------------12-------|
|---------------------------------------------|
|-0----12----0----12-0-12----12----0----12----|


  S S S S S S S S S  S S  S S S S  S
|-------9-----------11---11-------11-|
|---1-------1-----------------3------|
|------------------------------------|
|-----1-------1---3-------------3----|
|----------------------8-------------|
|-1-------1-----1-----------3--------|


  S  S  S  S S  S  S S  S  S  S  S S  S  S  S
|---------------------------------------------|
|---------12--------------12----12---------12-|
|---------------------------------------------|
|---12---------12--------------------12-------|
|---------------------------------------------|
|-0----12----0----12-0-12----12----0----12----|


  S S S S S S S S S  S S  S S S S  S
|-------9-----------11---11-------11-|
|---1-------1-----------------3------|
|------------------------------------|
|-----1-------1---3-------------3----|
|----------------------8-------------|
|-1-------1-----1-----------3--------|


  S  S  S  S S  S  S S  S  S  S  S S  S  S  S
|---------------------------------------------|
|---------12--------------12----12---------12-|
|---------------------------------------------|
|---12---------12--------------------12-------|
|---------------------------------------------|
|-0----12----0----12-0-12----12----0----12----|


  S S S S S S S S S  S S  S S S S  S
|-------9-----------11---11-------11-|
|---1-------1-----------------3------|
|------------------------------------|
|-----1-------1---3-------------3----|
|----------------------8-------------|
|-1-------1-----1-----------3--------|


  S  S  S  S S  S  S S  S  S  S  S S  S  S  S
|---------------------------------------------|
|---------12--------------12----12---------12-|
|---------------------------------------------|
|---12---------12--------------------12-------|
|---------------------------------------------|
|-0----12----0----12-0-12----12----0----12----|


  S S S S S S S S S  S S  S S S S  S
|-------9-----------11---11-------11-|
|---1-------1-----------------3------|
|------------------------------------|
|-----1-------1---3-------------3----|
|----------------------8-------------|
|-1-------1-----1-----------3--------|


  S  S  S  S S  S  S S  S  S  S  S S  S  S  S
|---------------------------------------------|
|---------12--------------12----12---------12-|
|---------------------------------------------|
|---12---------12--------------------12-------|
|---------------------------------------------|
|-0----12----0----12-0-12----12----0----12----|


  S S S S S S S S S  S S  S S S S  S
|-------9-----------11---11-------11-|
|---1-------1-----------------3------|
|------------------------------------|
|-----1-------1---3-------------3----|
|----------------------8-------------|
|-1-------1-----1-----------3--------|


  S  S  S  S S  S  S S  S  S  S  S S  S  S  S
|---------------------------------------------|
|---------12--------------12----12---------12-|
|---------------------------------------------|
|---12---------12--------------------12-------|
|---------------------------------------------|
|-0----12----0----12-0-12----12----0----12----|


  S S S S S S S S S  S S  S S S S  S
|-------9-----------11---11-------11-|
|---1-------1-----------------3------|
|------------------------------------|
|-----1-------1---3-------------3----|
|----------------------8-------------|
|-1-------1-----1-----------3--------|


  S  S  S  S S  S  S S  S  S  S  S S  S  S  S
|---------------------------------------------|
|---------12--------------12----12---------12-|
|---------------------------------------------|
|---12---------12--------------------12-------|
|---------------------------------------------|
|-0----12----0----12-0-12----12----0----12----|


  S S S S S S S S S  S S  S S S S  S
|-------9-----------11---11-------11-|
|---1-------1-----------------3------|
|------------------------------------|
|-----1-------1---3-------------3----|
|----------------------8-------------|
|-1-------1-----1-----------3--------|


  S  S  S  S S  S  S S  S  S  S  S S  S  S  S
|---------------------------------------------|
|---------12--------------12----12---------12-|
|---------------------------------------------|
|---12---------12--------------------12-------|
|---------------------------------------------|
|-0----12----0----12-0-12----12----0----12----|


  S S S S S S S S S  S S  S S S S  S
|-------9-----------11---11-------11-|
|---1-------1-----------------3------|
|------------------------------------|
|-----1-------1---3-------------3----|
|----------------------8-------------|
|-1-------1-----1-----------3--------|


  S  S  S  S S  S  S S  S  S  S  S S  S  S  S
|---------------------------------------------|
|---------12--------------12----12---------12-|
|---------------------------------------------|
|---12---------12--------------------12-------|
|---------------------------------------------|
|-0----12----0----12-0-12----12----0----12----|


  S S S S S S S S S  S S  S S S S  S
|-------9-----------11---11-------11-|
|---1-------1-----------------3------|
|------------------------------------|
|-----1-------1---3-------------3----|
|----------------------8-------------|
|-1-------1-----1-----------3--------|


  S  S  S  S S  S  S S  S  S  S  S S  S  S  S
|---------------------------------------------|
|---------12--------------12----12---------12-|
|---------------------------------------------|
|---12---------12--------------------12-------|
|---------------------------------------------|
|-0----12----0----12-0-12----12----0----12----|


  S S S S S S S S S  S S  S S S S  S
|-------9-----------11---11-------11-|
|---1-------1-----------------3------|
|------------------------------------|
|-----1-------1---3-------------3----|
|----------------------8-------------|
|-1-------1-----1-----------3--------|


  S  S  S  S S  S  S S  S  S  S  S S  S  S  S
|---------------------------------------------*|
|---------12--------------12----12---------12-*|
|---------------------------------------------*|
|---12---------12--------------------12-------*|
|---------------------------------------------*|
|-0----12----0----12-0-12----12----0----12----*|

*end of part 1*

Gtr II (C G C G C E) - 'Guitar 2' - Part 2 (Guitar 2 only)

  Q=94
 4/4
  Gtr I
  E E Q  E E E E   E E Q  E E E E   E E Q  E E E E   E E Q  E E E E
|----------------|----------------|----------------|-----------------|
|----------------|----------------|----------------|-----------------|
|----------------|----------------|----------------|-----------------|
|---1----3-3---3-|----------------|---1----3-3---3-|-----------------|
|----------------|---5----5-5---5-|----------------|---5----5-5---5--|
|-1---1------3---|-0---0------0---|-1---1------3---|-0---0------0----|


  E E Q  E E E E   E E Q  E E E E   E E Q  E E E E   E E Q  E E E E
|----------------|----------------|----------------|----------------|
|----------------|----------------|----------------|----------------|
|----------------|----------------|----------------|----------------|
|---1----3-3---3-|----------------|---1----3-3---3-|----------------|
|----------------|---5----5-5---5-|----------------|---5----5-5---5-|
|-1---1------3---|-0---0------0---|-1---1------3---|-0---0------0---|


  E E Q  E E E E   E E Q  E E E E   E E Q  E E E E   E E Q  E E E E
|----------------|----------------|----------------|----------------|
|----------------|----------------|----------------|----------------|
|----------------|----------------|----------------|----------------|
|---1----3-3---3-|----------------|---1----3-3---3-|----------------|
|----------------|---5----5-5---5-|----------------|---5----5-5---5-|
|-1---1------3---|-0---0------0---|-1---1------3---|-0---0------0---|


  E E Q  E E E E   E E Q  E E E E   E E Q  E E E E   E E Q  E E E E
|----------------|----------------|----------------|----------------|
|----------------|----------------|----------------|----------------|
|----------------|----------------|----------------|----------------|
|---1----3-3---3-|----------------|---1----3-3---3-|----------------|
|----------------|---5----5-5---5-|----------------|---5----5-5---5-|
|-1---1------3---|-0---0------0---|-1---1------3---|-0---0------0---|


  E E Q  E E E E   E E Q  E E E E   E E Q  E E E E   E E Q  E E E E
|----------------|----------------|----------------|----------------|
|----------------|----------------|----------------|----------------|
|----------------|----------------|----------------|----------------|
|---1----3-3---3-|----------------|---1----3-3---3-|----------------|
|----------------|---5----5-5---5-|----------------|---5----5-5---5-|
|-1---1------3---|-0---0------0---|-1---1------3---|-0---0------0---|


  E E Q  E E E E   E E Q  E E E E   E E Q  E E E E   E E Q  E E E E
|----------------|----------------|----------------|----------------*|
|----------------|----------------|----------------|----------------*|
|----------------|----------------|----------------|----------------*|
|---1----3-3---3-|----------------|---1----3-3---3-|----------------*|
|----------------|---5----5-5---5-|----------------|---5----5-5---5-*|
|-1---1------3---|-0---0------0---|-1---1------3---|-0---0------0---*|
*end of part 2*

Gtr I (E A D G B E) - 'Guitar 1' - Part 3 (all guitars play)

  Q=94
 4/4
  Gtr I
  E E Q  Q  E E   E E Q  Q  E E   E E Q  Q  E E   E E Q  Q  E E
|--------2----2-|---3-----------|--------2----2-|---3------------|
|---4-----------|-------------1-|---4-----------|-------------1--|
|---------------|-0------5------|---------------|-0------5-------|
|-1---3-----4---|-----5---------|-1---3-----4---|-----5----------|
|---------------|-----------3---|---------------|-----------3----|
|---------------|---------------|---------------|----------------|


  E E Q  Q  E E   E E Q  Q  E E   E E Q  Q  E E   E E Q  Q  E E
|--------2----2-|---3-----------|--------2----2-|---3-----------|
|---4-----------|-------------1-|---4-----------|-------------1-|
|---------------|-0------5------|---------------|-0------5------|
|-1---3-----4---|-----5---------|-1---3-----4---|-----5---------|
|---------------|-----------3---|---------------|-----------3---|
|---------------|---------------|---------------|---------------|


  E E Q  Q  E E   E E Q  Q  E E   E E Q  Q  E E   E E Q  Q  E E
|--------2----2-|---3-----------|--------2----2-|---3-----------|
|---4-----------|-------------1-|---4-----------|-------------1-|
|---------------|-0------5------|---------------|-0------5------|
|-1---3-----4---|-----5---------|-1---3-----4---|-----5---------|
|---------------|-----------3---|---------------|-----------3---|
|---------------|---------------|---------------|---------------|


  E E Q  Q  E E   E E Q  Q  E E   E E Q  Q  E E   E E Q  Q  E E
|--------2----2-|---3-----------|--------2----2-|---3-----------|
|---4-----------|-------------1-|---4-----------|-------------1-|
|---------------|-0------5------|---------------|-0------5------|
|-1---3-----4---|-----5---------|-1---3-----4---|-----5---------|
|---------------|-----------3---|---------------|-----------3---|
|---------------|---------------|---------------|---------------|


  E E Q  Q  E E   E E Q  Q  E E   E E Q  Q  E E   E E Q  Q  E E
|--------2----2-|---3-----------|--------2----2-|---3-----------|
|---4-----------|-------------1-|---4-----------|-------------1-|
|---------------|-0------5------|---------------|-0------5------|
|-1---3-----4---|-----5---------|-1---3-----4---|-----5---------|
|---------------|-----------3---|---------------|-----------3---|
|---------------|---------------|---------------|---------------|


  E E Q  Q  E E   E E Q  Q  E E   E E Q  Q  E E   E E Q  Q  E E
|--------2----2-|---3-----------|--------2----2-|---3-----------*|
|---4-----------|-------------1-|---4-----------|-------------1-*|
|---------------|-0------5------|---------------|-0------5------*|
|-1---3-----4---|-----5---------|-1---3-----4---|-----5---------*|
|---------------|-----------3---|---------------|-----------3---*|
|---------------|---------------|---------------|---------------*|

Gtr II (C G C G C E) - 'Guitar 2' - Part 3

  Q=94
 4/4
  Gtr I
  E E Q  E E E E   E E Q  E E E E   E E Q  E E E E   E E Q  E E E E
|----------------|----------------|----------------|-----------------|
|----------------|----------------|----------------|-----------------|
|----------------|----------------|----------------|-----------------|
|---3----6-6---6-|---7------------|---3----6-6---6-|---7-------------|
|----------------|--------5-5---5-|----------------|--------5-5---5--|
|-3---5------6---|-7---7------0---|-3---5------6---|-7---7------0----|


  E E Q  E E E E   E E Q  E E E E   E E Q  E E E E   E E Q  E E E E
|----------------|----------------|----------------|----------------|
|----------------|----------------|----------------|----------------|
|----------------|----------------|----------------|----------------|
|---3----6-6---6-|---7------------|---3----6-6---6-|---7------------|
|----------------|--------5-5---5-|----------------|--------5-5---5-|
|-3---5------6---|-7---7------0---|-3---5------6---|-7---7------0---|


  E E Q  E E E E   E E Q  E E E E   E E Q  E E E E   E E Q  E E E E
|----------------|----------------|----------------|----------------|
|----------------|----------------|----------------|----------------|
|----------------|----------------|----------------|----------------|
|---3----6-6---6-|---7------------|---3----6-6---6-|---7------------|
|----------------|--------5-5---5-|----------------|--------5-5---5-|
|-3---5------6---|-7---7------0---|-3---5------6---|-7---7------0---|


  E E Q  E E E E   E E Q  E E E E   E E Q  E E E E   E E Q  E E E E
|----------------|----------------|----------------|----------------|
|----------------|----------------|----------------|----------------|
|----------------|----------------|----------------|----------------|
|---3----6-6---6-|---7------------|---3----6-6---6-|---7------------|
|----------------|--------5-5---5-|----------------|--------5-5---5-|
|-3---5------6---|-7---7------0---|-3---5------6---|-7---7------0---|


  E E Q  E E E E   E E Q  E E E E   E E Q  E E E E   E E Q  E E E E
|----------------|----------------|----------------|----------------|
|----------------|----------------|----------------|----------------|
|----------------|----------------|----------------|----------------|
|---3----6-6---6-|---7------------|---3----6-6---6-|---7------------|
|----------------|--------5-5---5-|----------------|--------5-5---5-|
|-3---5------6---|-7---7------0---|-3---5------6---|-7---7------0---|


  E E Q  E E E E   E E Q  E E E E   E E Q  E E E E   E E Q  E E E E
|----------------|----------------|----------------|----------------*|
|----------------|----------------|----------------|----------------*|
|----------------|----------------|----------------|----------------*|
|---3----6-6---6-|---7------------|---3----6-6---6-|---7------------*|
|----------------|--------5-5---5-|----------------|--------5-5---5-*|
|-3---5------6---|-7---7------0---|-3---5------6---|-7---7------0---*|

Gtr III (E A D G B E) - 'Guitar 3' - Part 3

  Q=94
 4/4
  Gtr I
  E E E S S E S S E E   E E E S S E S S E E   E E E S S E S S E E
|-----------2-2-2---2-|---3-----------------|-----------2-2-2---2-|
|---4-----------------|-------------------1-|---4-----------------|
|---------------------|-0---------5-5-5-----|---------------------|
|-1---3-3-3-------4---|-----5-5-5-----------|-1---3-3-3-------4---|
|---------------------|-----------------3---|---------------------|
|---------------------|---------------------|---------------------|


  E E E S S E S S E E   E E E S S E S S E E   E E E S S E S S E E
|---3-----------------|-----------2-2-2---2-|---3-----------------|
|-------------------1-|---4-----------------|-------------------1-|
|-0---------5-5-5-----|---------------------|-0---------5-5-5-----|
|-----5-5-5-----------|-1---3-3-3-------4---|-----5-5-5-----------|
|-----------------3---|---------------------|-----------------3---|
|---------------------|---------------------|---------------------|


  E E E S S E S S E E   E E E S S E S S E E   E E E S S E S S E E
|-----------2-2-2---2-|---3-----------------|-----------2-2-2---2-|
|---4-----------------|-------------------1-|---4-----------------|
|---------------------|-0---------5-5-5-----|---------------------|
|-1---3-3-3-------4---|-----5-5-5-----------|-1---3-3-3-------4---|
|---------------------|-----------------3---|---------------------|
|---------------------|---------------------|---------------------|


  E E E S S E S S E E   E E E S S E S S E E   E E E S S E S S E E
|---3-----------------|-----------2-2-2---2-|---3-----------------|
|-------------------1-|---4-----------------|-------------------1-|
|-0---------5-5-5-----|---------------------|-0---------5-5-5-----|
|-----5-5-5-----------|-1---3-3-3-------4---|-----5-5-5-----------|
|-----------------3---|---------------------|-----------------3---|
|---------------------|---------------------|---------------------|


  E E E S S E S S E E   E E E S S E S S E E   E E E S S E S S E E
|-----------2-2-2---2-|---3-----------------|-----------2-2-2---2-|
|---4-----------------|-------------------1-|---4-----------------|
|---------------------|-0---------5-5-5-----|---------------------|
|-1---3-3-3-------4---|-----5-5-5-----------|-1---3-3-3-------4---|
|---------------------|-----------------3---|---------------------|
|---------------------|---------------------|---------------------|


  E E E S S E S S E E   E E E S S E S S E E   E E E S S E S S E E
|---3-----------------|-----------2-2-2---2-|---3-----------------|
|-------------------1-|---4-----------------|-------------------1-|
|-0---------5-5-5-----|---------------------|-0---------5-5-5-----|
|-----5-5-5-----------|-1---3-3-3-------4---|-----5-5-5-----------|
|-----------------3---|---------------------|-----------------3---|
|---------------------|---------------------|---------------------|


  E E E S S E S S E E   E E E S S E S S E E   E E E S S E S S E E
|-----------2-2-2---2-|---3-----------------|-----------2-2-2---2-|
|---4-----------------|-------------------1-|---4-----------------|
|---------------------|-0---------5-5-5-----|---------------------|
|-1---3-3-3-------4---|-----5-5-5-----------|-1---3-3-3-------4---|
|---------------------|-----------------3---|---------------------|
|---------------------|---------------------|---------------------|


  E E E S S E S S E E   E E E S S E S S E E   E E E S S E S S E E
|---3-----------------|-----------2-2-2---2-|---3-----------------*|
|-------------------1-|---4-----------------|-------------------1-*|
|-0---------5-5-5-----|---------------------|-0---------5-5-5-----*|
|-----5-5-5-----------|-1---3-3-3-------4---|-----5-5-5-----------*|
|-----------------3---|---------------------|-----------------3---*|
|---------------------|---------------------|---------------------*|
*end of part 3*

Gtr I (E A D G B E) - 'Guitar 1' - Part 4 (Guitars 1 and 3 only)

  Q=94
 4/4
  Gtr I
  E E Q  Q  E E   E E Q  Q  E E   E E Q  Q  E E   E E Q  Q  E E
|--------2----2-|---3-----------|--------2----2-|---3------------|
|---4-----------|-------------1-|---4-----------|-------------1--|
|---------------|-0------5------|---------------|-0------5-------|
|-1---3-----4---|-----5---------|-1---3-----4---|-----5----------|
|---------------|-----------3---|---------------|-----------3----|
|---------------|---------------|---------------|----------------|


  E E Q  Q  E E   E E Q  Q  E E   E E Q  Q  E E   E E Q  Q  E E
|--------2----2-|---3-----------|--------2----2-|---3-----------|
|---4-----------|-------------1-|---4-----------|-------------1-|
|---------------|-0------5------|---------------|-0------5------|
|-1---3-----4---|-----5---------|-1---3-----4---|-----5---------|
|---------------|-----------3---|---------------|-----------3---|
|---------------|---------------|---------------|---------------|


  E E Q  Q  E E   E E Q  Q  E E   E E Q  Q  E E   E E Q  Q  E E
|--------2----2-|---3-----------|--------2----2-|---3-----------|
|---4-----------|-------------1-|---4-----------|-------------1-|
|---------------|-0------5------|---------------|-0------5------|
|-1---3-----4---|-----5---------|-1---3-----4---|-----5---------|
|---------------|-----------3---|---------------|-----------3---|
|---------------|---------------|---------------|---------------|


  E E Q  Q  E E   E E Q  Q  E E   E E Q  Q  E E   E E Q  Q  E E
|--------2----2-|---3-----------|--------2----2-|---3-----------|
|---4-----------|-------------1-|---4-----------|-------------1-|
|---------------|-0------5------|---------------|-0------5------|
|-1---3-----4---|-----5---------|-1---3-----4---|-----5---------|
|---------------|-----------3---|---------------|-----------3---|
|---------------|---------------|---------------|---------------|


  E E Q  Q  E E   E E Q  Q  E E   E E Q  Q  E E   E E Q  Q  E E
|--------2----2-|---3-----------|--------2----2-|---3-----------|
|---4-----------|-------------1-|---4-----------|-------------1-|
|---------------|-0------5------|---------------|-0------5------|
|-1---3-----4---|-----5---------|-1---3-----4---|-----5---------|
|---------------|-----------3---|---------------|-----------3---|
|---------------|---------------|---------------|---------------|


  E E Q  Q  E E   E E Q  Q  E E   E E Q  Q  E E   E E Q  Q  E E
|--------2----2-|---3-----------|--------2----2-|---3-----------*|
|---4-----------|-------------1-|---4-----------|-------------1-*|
|---------------|-0------5------|---------------|-0------5------*|
|-1---3-----4---|-----5---------|-1---3-----4---|-----5---------*|
|---------------|-----------3---|---------------|-----------3---*|
|---------------|---------------|---------------|---------------*|

Gtr III (E A D G B E) - 'Guitar 3' - Part 4 (guitars 1 and 3 only)

  Q=94
 4/4
  Gtr I
  E E E S S E S S E E   E E E S S E S S E E   E E E S S E S S E E
|-----------2-2-2---2-|---3-----------------|-----------2-2-2---2-|
|---4-----------------|-------------------1-|---4-----------------|
|---------------------|-0---------5-5-5-----|---------------------|
|-1---3-3-3-------4---|-----5-5-5-----------|-1---3-3-3-------4---|
|---------------------|-----------------3---|---------------------|
|---------------------|---------------------|---------------------|


  E E E S S E S S E E   E E E S S E S S E E   E E E S S E S S E E
|---3-----------------|-----------2-2-2---2-|---3-----------------|
|-------------------1-|---4-----------------|-------------------1-|
|-0---------5-5-5-----|---------------------|-0---------5-5-5-----|
|-----5-5-5-----------|-1---3-3-3-------4---|-----5-5-5-----------|
|-----------------3---|---------------------|-----------------3---|
|---------------------|---------------------|---------------------|


  E E E S S E S S E E   E E E S S E S S E E   E E E S S E S S E E
|-----------2-2-2---2-|---3-----------------|-----------2-2-2---2-|
|---4-----------------|-------------------1-|---4-----------------|
|---------------------|-0---------5-5-5-----|---------------------|
|-1---3-3-3-------4---|-----5-5-5-----------|-1---3-3-3-------4---|
|---------------------|-----------------3---|---------------------|
|---------------------|---------------------|---------------------|


  E E E S S E S S E E   E E E S S E S S E E   E E E S S E S S E E
|---3-----------------|-----------2-2-2---2-|---3-----------------|
|-------------------1-|---4-----------------|-------------------1-|
|-0---------5-5-5-----|---------------------|-0---------5-5-5-----|
|-----5-5-5-----------|-1---3-3-3-------4---|-----5-5-5-----------|
|-----------------3---|---------------------|-----------------3---|
|---------------------|---------------------|---------------------|


  E E E S S E S S E E   E E E S S E S S E E   E E E S S E S S E E
|-----------2-2-2---2-|---3-----------------|-----------2-2-2---2-|
|---4-----------------|-------------------1-|---4-----------------|
|---------------------|-0---------5-5-5-----|---------------------|
|-1---3-3-3-------4---|-----5-5-5-----------|-1---3-3-3-------4---|
|---------------------|-----------------3---|---------------------|
|---------------------|---------------------|---------------------|


  E E E S S E S S E E   E E E S S E S S E E   E E E S S E S S E E
|---3-----------------|-----------2-2-2---2-|---3-----------------|
|-------------------1-|---4-----------------|-------------------1-|
|-0---------5-5-5-----|---------------------|-0---------5-5-5-----|
|-----5-5-5-----------|-1---3-3-3-------4---|-----5-5-5-----------|
|-----------------3---|---------------------|-----------------3---|
|---------------------|---------------------|---------------------|


  E E E S S E S S E E   E E E S S E S S E E   E E E S S E S S E E
|-----------2-2-2---2-|---3-----------------|-----------2-2-2---2-|
|---4-----------------|-------------------1-|---4-----------------|
|---------------------|-0---------5-5-5-----|---------------------|
|-1---3-3-3-------4---|-----5-5-5-----------|-1---3-3-3-------4---|
|---------------------|-----------------3---|---------------------|
|---------------------|---------------------|---------------------|


  E E E S S E S S E E   E E E S S E S S E E   E E E S S E S S E E
|---3-----------------|-----------2-2-2---2-|---3-----------------*|
|-------------------1-|---4-----------------|-------------------1-*|
|-0---------5-5-5-----|---------------------|-0---------5-5-5-----*|
|-----5-5-5-----------|-1---3-3-3-------4---|-----5-5-5-----------*|
|-----------------3---|---------------------|-----------------3---*|
|---------------------|---------------------|---------------------*|
*end of part 4*

Gtr I (C G C G C E) - 'Guitar 1' - Part 5 (final part all together)

  Q=94
 4/4
  Gtr I
  E E Q  E E E E   E E Q  E E E E   E E Q  E E E E   E E Q  E E E E
|----------------|----------------|----------------|-----------------|
|----------------|----------------|----------------|-----------------|
|----------------|----------------|----------------|-----------------|
|---3----6-6---6-|---7------------|---3----6-6---6-|---7-------------|
|----------------|--------5-5---5-|----------------|--------5-5---5--|
|-3---5------6---|-7---7------0---|-3---5------6---|-7---7------0----|


  E E Q  E E E E   E E Q  E E E E   E E Q  E E E E   E E Q  E E E E
|----------------|----------------|----------------|----------------|
|----------------|----------------|----------------|----------------|
|----------------|----------------|----------------|----------------|
|---3----6-6---6-|---7------------|---3----6-6---6-|---7------------|
|----------------|--------5-5---5-|----------------|--------5-5---5-|
|-3---5------6---|-7---7------0---|-3---5------6---|-7---7------0---|


  E E Q  E E E E   E E Q  E E E E   E E Q  E E E E   E E Q  E E E E
|----------------|----------------|----------------|----------------|
|----------------|----------------|----------------|----------------|
|----------------|----------------|----------------|----------------|
|---3----6-6---6-|---7------------|---3----6-6---6-|---7------------|
|----------------|--------5-5---5-|----------------|--------5-5---5-|
|-3---5------6---|-7---7------0---|-3---5------6---|-7---7------0---|


  E E Q  E E E E   E E Q  E E E E   E E Q  E E E E   E E Q  E E E E
|----------------|----------------|----------------|----------------|
|----------------|----------------|----------------|----------------|
|----------------|----------------|----------------|----------------|
|---3----6-6---6-|---7------------|---3----6-6---6-|---7------------|
|----------------|--------5-5---5-|----------------|--------5-5---5-|
|-3---5------6---|-7---7------0---|-3---5------6---|-7---7------0---|


  E E Q  E E E E   E E Q  E E E E   E E Q  E E E E   E E Q  E E E E
|----------------|----------------|----------------|----------------|
|----------------|----------------|----------------|----------------|
|----------------|----------------|----------------|----------------|
|---3----6-6---6-|---7------------|---3----6-6---6-|---7------------|
|----------------|--------5-5---5-|----------------|--------5-5---5-|
|-3---5------6---|-7---7------0---|-3---5------6---|-7---7------0---|


  E E Q  E E E E   E E Q  E E E E   E E Q  E E E E   E E Q  E E E E
|----------------|----------------|----------------|----------------*|
|----------------|----------------|----------------|----------------*|
|----------------|----------------|----------------|----------------*|
|---3----6-6---6-|---7------------|---3----6-6---6-|---7------------*|
|----------------|--------5-5---5-|----------------|--------5-5---5-*|
|-3---5------6---|-7---7------0---|-3---5------6---|-7---7------0---*|

Gtr II (C G C G C E) - 'Guitar 2' - Part 5

  Q=94
 4/4
  Gtr I
  E E Q  E E E E   E E Q  E E E E   E E Q  E E E E   E E Q  E E E E
|----------------|----------------|----------------|-----------------|
|----------------|----------------|----------------|-----------------|
|----------------|----------------|----------------|-----------------|
|---1----3-3---3-|----------------|---1----3-3---3-|-----------------|
|----------------|---5----5-5---5-|----------------|---5----5-5---5--|
|-1---1------3---|-0---0------0---|-1---1------3---|-0---0------0----|


  E E Q  E E E E   E E Q  E E E E   E E Q  E E E E   E E Q  E E E E
|----------------|----------------|----------------|----------------|
|----------------|----------------|----------------|----------------|
|----------------|----------------|----------------|----------------|
|---1----3-3---3-|----------------|---1----3-3---3-|----------------|
|----------------|---5----5-5---5-|----------------|---5----5-5---5-|
|-1---1------3---|-0---0------0---|-1---1------3---|-0---0------0---|


  E E Q  E E E E   E E Q  E E E E   E E Q  E E E E   E E Q  E E E E
|----------------|----------------|----------------|----------------|
|----------------|----------------|----------------|----------------|
|----------------|----------------|----------------|----------------|
|---1----3-3---3-|----------------|---1----3-3---3-|----------------|
|----------------|---5----5-5---5-|----------------|---5----5-5---5-|
|-1---1------3---|-0---0------0---|-1---1------3---|-0---0------0---|


  E E Q  E E E E   E E Q  E E E E   E E Q  E E E E   E E Q  E E E E
|----------------|----------------|----------------|----------------|
|----------------|----------------|----------------|----------------|
|----------------|----------------|----------------|----------------|
|---1----3-3---3-|----------------|---1----3-3---3-|----------------|
|----------------|---5----5-5---5-|----------------|---5----5-5---5-|
|-1---1------3---|-0---0------0---|-1---1------3---|-0---0------0---|


  E E Q  E E E E   E E Q  E E E E   E E Q  E E E E   E E Q  E E E E
|----------------|----------------|----------------|----------------|
|----------------|----------------|----------------|----------------|
|----------------|----------------|----------------|----------------|
|---1----3-3---3-|----------------|---1----3-3---3-|----------------|
|----------------|---5----5-5---5-|----------------|---5----5-5---5-|
|-1---1------3---|-0---0------0---|-1---1------3---|-0---0------0---|


  E E Q  E E E E   E E Q  E E E E   E E Q  E E E E   E E Q  E E E E
|----------------|----------------|----------------|----------------*|
|----------------|----------------|----------------|----------------*|
|----------------|----------------|----------------|----------------*|
|---1----3-3---3-|----------------|---1----3-3---3-|----------------*|
|----------------|---5----5-5---5-|----------------|---5----5-5---5-*|
|-1---1------3---|-0---0------0---|-1---1------3---|-0---0------0---*|

Gtr III (C G C G C E) - 'Guitar 3' - Part 5

  Q=94
 4/4
  Gtr I
  S S S S S S S S S  S S  S S S S  S
|-------9-----------11---11-------11-|
|---1-------1-----------------3------|
|------------------------------------|
|-----1-------1---3-------------3----|
|----------------------8-------------|
|-1-------1-----1-----------3--------|


  S  S  S  S S  S  S S  S  S  S  S S  S  S  S
|----------------------------------------------|
|---------12--------------12----12---------12--|
|----------------------------------------------|
|---12---------12--------------------12--------|
|----------------------------------------------|
|-0----12----0----12-0-12----12----0----12-----|


  S S S S S S S S S  S S  S S S S  S
|-------9-----------11---11-------11-|
|---1-------1-----------------3------|
|------------------------------------|
|-----1-------1---3-------------3----|
|----------------------8-------------|
|-1-------1-----1-----------3--------|


  S  S  S  S S  S  S S  S  S  S  S S  S  S  S
|---------------------------------------------|
|---------12--------------12----12---------12-|
|---------------------------------------------|
|---12---------12--------------------12-------|
|---------------------------------------------|
|-0----12----0----12-0-12----12----0----12----|


  S S S S S S S S S  S S  S S S S  S
|-------9-----------11---11-------11-|
|---1-------1-----------------3------|
|------------------------------------|
|-----1-------1---3-------------3----|
|----------------------8-------------|
|-1-------1-----1-----------3--------|


  S  S  S  S S  S  S S  S  S  S  S S  S  S  S
|---------------------------------------------|
|---------12--------------12----12---------12-|
|---------------------------------------------|
|---12---------12--------------------12-------|
|---------------------------------------------|
|-0----12----0----12-0-12----12----0----12----|


  S S S S S S S S S  S S  S S S S  S
|-------9-----------11---11-------11-|
|---1-------1-----------------3------|
|------------------------------------|
|-----1-------1---3-------------3----|
|----------------------8-------------|
|-1-------1-----1-----------3--------|


  S  S  S  S S  S  S S  S  S  S  S S  S  S  S
|---------------------------------------------|
|---------12--------------12----12---------12-|
|---------------------------------------------|
|---12---------12--------------------12-------|
|---------------------------------------------|
|-0----12----0----12-0-12----12----0----12----|


  S S S S S S S S S  S S  S S S S  S
|-------9-----------11---11-------11-|
|---1-------1-----------------3------|
|------------------------------------|
|-----1-------1---3-------------3----|
|----------------------8-------------|
|-1-------1-----1-----------3--------|


  S  S  S  S S  S  S S  S  S  S  S S  S  S  S
|---------------------------------------------|
|---------12--------------12----12---------12-|
|---------------------------------------------|
|---12---------12--------------------12-------|
|---------------------------------------------|
|-0----12----0----12-0-12----12----0----12----|


  S S S S S S S S S  S S  S S S S  S
|-------9-----------11---11-------11-|
|---1-------1-----------------3------|
|------------------------------------|
|-----1-------1---3-------------3----|
|----------------------8-------------|
|-1-------1-----1-----------3--------|


  S  S  S  S S  S  S S  S  S  S  S S  S  S  S
|---------------------------------------------|
|---------12--------------12----12---------12-|
|---------------------------------------------|
|---12---------12--------------------12-------|
|---------------------------------------------|
|-0----12----0----12-0-12----12----0----12----|


  S S S S S S S S S  S S  S S S S  S
|-------9-----------11---11-------11-|
|---1-------1-----------------3------|
|------------------------------------|
|-----1-------1---3-------------3----|
|----------------------8-------------|
|-1-------1-----1-----------3--------|


  S  S  S  S S  S  S S  S  S  S  S S  S  S  S
|---------------------------------------------|
|---------12--------------12----12---------12-|
|---------------------------------------------|
|---12---------12--------------------12-------|
|---------------------------------------------|
|-0----12----0----12-0-12----12----0----12----|


  S S S S S S S S S  S S  S S S S  S
|-------9-----------11---11-------11-|
|---1-------1-----------------3------|
|------------------------------------|
|-----1-------1---3-------------3----|
|----------------------8-------------|
|-1-------1-----1-----------3--------|


  S  S  S  S S  S  S S  S  S  S  S S  S  S  S
|---------------------------------------------|
|---------12--------------12----12---------12-|
|---------------------------------------------|
|---12---------12--------------------12-------|
|---------------------------------------------|
|-0----12----0----12-0-12----12----0----12----|


  S S S S S S S S S  S S  S S S S  S
|-------9-----------11---11-------11-|
|---1-------1-----------------3------|
|------------------------------------|
|-----1-------1---3-------------3----|
|----------------------8-------------|
|-1-------1-----1-----------3--------|


  S  S  S  S S  S  S S  S  S  S  S S  S  S  S
|---------------------------------------------|
|---------12--------------12----12---------12-|
|---------------------------------------------|
|---12---------12--------------------12-------|
|---------------------------------------------|
|-0----12----0----12-0-12----12----0----12----|


  S S S S S S S S S  S S  S S S S  S
|-------9-----------11---11-------11-|
|---1-------1-----------------3------|
|------------------------------------|
|-----1-------1---3-------------3----|
|----------------------8-------------|
|-1-------1-----1-----------3--------|


  S  S  S  S S  S  S S  S  S  S  S S  S  S  S
|---------------------------------------------|
|---------12--------------12----12---------12-|
|---------------------------------------------|
|---12---------12--------------------12-------|
|---------------------------------------------|
|-0----12----0----12-0-12----12----0----12----|


  S S S S S S S S S  S S  S S S S  S
|-------9-----------11---11-------11-|
|---1-------1-----------------3------|
|------------------------------------|
|-----1-------1---3-------------3----|
|----------------------8-------------|
|-1-------1-----1-----------3--------|


  S  S  S  S S  S  S S  S  S  S  S S  S  S  S
|---------------------------------------------|
|---------12--------------12----12---------12-|
|---------------------------------------------|
|---12---------12--------------------12-------|
|---------------------------------------------|
|-0----12----0----12-0-12----12----0----12----|


  S S S S S S S S S  S S  S S S S  S
|-------9-----------11---11-------11-|
|---1-------1-----------------3------|
|------------------------------------|
|-----1-------1---3-------------3----|
|----------------------8-------------|
|-1-------1-----1-----------3--------|


  S  S  S  S S  S  S S  S  S  S  S S  S  S  S
|---------------------------------------------*|
|---------12--------------12----12---------12-*|
|---------------------------------------------*|
|---12---------12--------------------12-------*|
|---------------------------------------------*|
|-0----12----0----12-0-12----12----0----12----*|
*end of song*

This song requires 3 people to play and 2 differently tuned guitars, it is a little 
difficult. But one person can just play doesn't matter.
Добавлено: 27.06.2015
Другие материалы по этой песне:
  • Аккорды и текст

Страница создана 27.06.2015
http://primanota.ru/draenor/approaching-end-chords.htm
Привет, Гость.
Предлагаем пройти революционный курс по гитаре.
Подарок от PrimaNota.Ru, забирай!