PrimaNota.ru - самый крупный в мире бесплатный архив песенных текстов, аккордов, табулатур и нот


Draenor - Anomalous - таба, видео

Регистрация Запомнить меня
Войти через:  Facebook Google Twitter Vk Yandex Mail.ru

Draenor - Anomalous - таба, видео

Печатать
Просмотров: 33
Anomalous by Draenor
Official Tab

Gtr I (E A D G B E) - 'Main Medley' - Harp

  Q=89
 4/4
  Gtr I
  E E E S S S S E E E   Q  E E S S E E E   Q  E S S S S E Q
|---------------------|------------------|-------------------|
|---------------------|--------3-----3---|-------------------|
|---------------------|-4----4-----------|-------------------|
|-----------0-----0---|------------------|----------0-----0--|
|-2-----2-------------|------------------|-2----2------------|
|---------------------|------------------|-------------------|


  e. S E E s S E e. S
|------------------------*|
|------------------------*|
|-4------4---------------*|
|----------5-----5-------*|
|------------------------*|
|------------------------*|
Добавлено: 27.06.2015
Другие материалы по этой песне:
  • Аккорды и текст

Страница создана 27.06.2015
http://primanota.ru/draenor/anomalous-chords.htm
Привет, Гость.
Предлагаем пройти революционный курс по гитаре.
Подарок от PrimaNota.Ru, забирай!