PrimaNota.ru - самый крупный в мире бесплатный архив песенных текстов, аккордов, табулатур и нот


Draenor - Amongst Evil - таба, видео

Регистрация Запомнить меня
Войти через:  Facebook Google Twitter Vk Yandex Mail.ru

Draenor - Amongst Evil - таба, видео

Печатать
Просмотров: 62
Amongst Evil by Draenor
Official Tab

Gtr I (E A D G B E) - 'Main Medley' - Viola

  Q=109
 4/4
  Gtr I
  S S E S S E S S E S S S S   S S S S S S E S S E S S E
|---------------------------|---------------------------|
|---------------------------|-----3-------3-----3-----3-|
|---------------------------|-----7-------7-----7-----7-|
|-----5-----5-----5-----5---|-5-5-----5-5---5-5---5-5---|
|-3-3---3-3---3-3---3-3-----|---------------------------|
|---------------------------|---------------------------|


  S S S S S S S S S S E S S E   S S S S S S S S S S S S S S E
|-----------------------------|-------------------------------*|
|-----2-------2-------2-----2-|-----1-------1-----------------*|
|-----6-------6-------6-----6-|-----5-------5-------3-------3-*|
|-4-4-----4-4-----4-4---4-4---|-3-3-----3-3-----1-1-----1-1---*|
|-----------------------------|-------------------------------*|
|-----------------------------|-------------------------------*|


Gtr II (E A D G B E) - 'Pizzi Medley' - Pizzicato

  Q=109
 4/4
  Gtr I
  W          S S S S Q  H      S S S S Q  H
|----------|-----------------|-----------------|
|----------|-----3-----------|-----2-----------|
|----------|-0-0-7-----------|-----6-----------|
|----------|-----------------|-4-4-------------|
|----------|-----------------|-----------------|
|----------|-----------------|-----------------|


  S S s S Q  H
|-----------------*|
|-----1-----------*|
|-----5-----------*|
|-3-3-------------*|
|-----------------*|
|-----------------*|
Добавлено: 27.06.2015
Другие материалы по этой песне:
  • Аккорды и текст

Страница создана 27.06.2015
http://primanota.ru/draenor/amongst-evil-chords.htm
Привет, Гость.
Предлагаем пройти революционный курс по гитаре.
Подарок от PrimaNota.Ru, забирай!