PrimaNota.ru - самый крупный в мире бесплатный архив песенных текстов, аккордов, табулатур и нот


Draconian - Elysian Night - текст песни, таба, видео

Регистрация Запомнить меня
Войти через:  Facebook Google Twitter Vk Yandex Mail.ru

Draconian - Elysian Night - текст песни, таба, видео

Печатать
Просмотров: 221
Уроки эстрадного вокала в Санкт-Петербурге
Авторы музыки: Johan Ericson
Авторы текста: Johan Ericson, Anders Jacobsson
Band: Draconian
Album: A Rose For The Apocalypse
Song: Elysian Night
Tuning: Drop C ( C G C F A D )
Tabbed by: Dractus
Email: dractus@gmail.com


Riff I


lead guitar:

D|-5555-0000-7777-8888-|-5555------7777-8888-|
A|---------------------|------6666-----------|
F|---------------------|---------------------|x2 (or x4 instead  of 
C|---------------------|---------------------|   tabs below if you want)
G|---------------------|---------------------|
C|---------------------|---------------------|

D|--------------------|---------------------|
A|--------------------|---------------------|
F|--------------------|---------------------|  x2
C|-7-------9---10-----|-7-------9----10-----|
G|-----7--------------|-----8---------------|
C|--------------------|---------------------|

rhytm guitar:

D|----------------------------------------------------------------------|
A|----------------------------------------------------------------------|
F|----------------------------------------------------------------------|
C|-5555555555555555-3333333333333333-2222222222222222-0000000000000000--| x4
G|-5555555555555555-3333333333333333-2222222222222222-0000000000000000--|
C|-5555555555555555-3333333333333333-2222222222222222-0000000000000000--|




Riff II (0:29)

D|-----------------3-|----------------0--|
A|-----------------3-|----------------0--|
F|-------------------|-------------------|
C|-2-0-3-9-12--0-----|-2-0-3-9-12--0-----|
G|-2-0-3-9-12--0-----|-2-0-3-9-12--0-----|
C|-2-0-3-9-12--0-----|-2-0-3-9-12--0-----|



Riff III (0:44)

D|-5----------------------|
A|----6---6-6/8-8--5b6r5~~|
F|------------------------|  x4
C|------------------------|
G|------------------------|
C|------------------------|



Riff IV (1:14)

D|------------------------|
A|-11--10---13---11-------|
F|------------------------|  x2
C|------------------------|
G|------------------------|
C|------------------------|



Riff V (1:28)

D|---------------------------------------------------------------------|
A|---------------------------------------------------------------------|
F|---------------------------------------------------------------------|
C|-8888888888888888-5555555555555555-7777777777777777-8888888888888888-|
G|-8888888888888888-5555555555555555-7777777777777777-8888888888888888-|
C|-8888888888888888-5555555555555555-7777777777777777-8888888888888888-|

D|--------------------------------------|
A|--------------------------------------|
F|--------------------------------------|
C|-5555555555555555-7777777777777777----|
G|-5555555555555555-7777777777777777----|
C|-5555555555555555-7777777777777777----|

       P.M.
D|--------------|
A|--------------|         (You can also play these notes without palm muting,
F|--------------|    x4    but muted ones just sound better)
C|-0---000-8----|
G|-0---000-8----|
C|-0---000-8----|
       ...



Bridge (2:04)

   P.M.
D|---------|
A|---------|
F|---------|
C|-00-00---|
G|-00-00---|
C|-00-00---|
   .. ..



Riff III (2:05)

D|-5----------------------|
A|----6---6-6/8-8--5b6r5~~|
F|------------------------|  x2
C|------------------------|
G|------------------------|
C|------------------------|



Riff IV (2:21)

D|------------------------|
A|-11--10---13---11-------|
F|------------------------|  x2
C|------------------------|
G|------------------------|
C|------------------------|



Riff V (2:35)

D|---------------------------------------------------------------------|
A|---------------------------------------------------------------------|
F|---------------------------------------------------------------------|
C|-8888888888888888-5555555555555555-7777777777777777-8888888888888888-|
G|-8888888888888888-5555555555555555-7777777777777777-8888888888888888-|
C|-8888888888888888-5555555555555555-7777777777777777-8888888888888888-|

D|--------------------------------------|
A|--------------------------------------|
F|--------------------------------------|
C|-5555555555555555-7777777777777777----|
G|-5555555555555555-7777777777777777----|
C|-5555555555555555-7777777777777777----|

       P.M.
D|--------------|
A|--------------|
F|--------------|      x4
C|-0---000-8----|
G|-0---000-8----|
C|-0---000-8----|
       ...



Riff VI (3:12)

D|------------------|-------------------|
A|------------------|-------------------|
F|------------------|-------------------|   
C|-5---7---8---0---3|-5---7---0---3-----|
G|-5---7---8---0---3|-5---7---0---3-----|
C|-5---7---8---0---3|-5---7---0---3-----|



Riff I (3:41)

lead guitar:

D|-5555-0000-7777-8888-|-5555------7777-8888-|
A|---------------------|------6666-----------|
F|---------------------|---------------------|x2 
C|---------------------|---------------------|  
G|---------------------|---------------------|
C|---------------------|---------------------|

D|-----------------------|-----------------------|
A|-----------------------|-----------------------|
F|-----------------------|-----------------------|  x2
C|-7777----9999-10101010-|-7777----9999-10101010-|
G|-----7777--------------|-----8888--------------|
C|-----------------------|-----------------------|

rhytm guitar:

D|----------------------------------------------------------------------|
A|----------------------------------------------------------------------|
F|----------------------------------------------------------------------|
C|-5555555555555555-3333333333333333-2222222222222222-0000000000000000--| x4
G|-5555555555555555-3333333333333333-2222222222222222-0000000000000000--|
C|-5555555555555555-3333333333333333-2222222222222222-0000000000000000--|




Riff II (4:11)

D|-----------------3-|----------------0--|
A|-----------------3-|----------------0--|
F|-------------------|-------------------|
C|-2-0-3-9-12--0-----|-2-0-3-9-12--0-----|
G|-2-0-3-9-12--0-----|-2-0-3-9-12--0-----|
C|-2-0-3-9-12--0-----|-2-0-3-9-12--0-----|



Bridge (4:24)

   P.M.
D|---------|
A|---------|
F|---------|
C|-00-00---|
G|-00-00---|
C|-00-00---|
   .. ..



Riff VII (4:27)

D|-----5--5p3--------3----3-----|
A|-3----------6--5------5---5---|
F|------------------------------|
C|------------------------------|  x8
G|------------------------------|
C|------------------------------|

D|-----5---------------|-5------------------|
A|-3------6-6/8---5^6--|----6-6/8-8---5^6---|
F|---------------------|--------------------|
C|---------------------|--------------------|
G|---------------------|--------------------|
C|---------------------|--------------------|


Riff IV (5:41)

D|------------------------|
A|-11--10---13---11-------|
F|------------------------|  x2
C|------------------------|
G|------------------------|
C|------------------------|


Riff V (5:56)

D|---------------------------------------------------------------------|
A|---------------------------------------------------------------------|
F|---------------------------------------------------------------------|
C|-8888888888888888-5555555555555555-7777777777777777-8888888888888888-|
G|-8888888888888888-5555555555555555-7777777777777777-8888888888888888-|
C|-8888888888888888-5555555555555555-7777777777777777-8888888888888888-|

D|--------------------------------------|
A|--------------------------------------|
F|--------------------------------------|
C|-5555555555555555-7777777777777777----|
G|-5555555555555555-7777777777777777----|
C|-5555555555555555-7777777777777777----|

       P.M.
D|--------------|
A|--------------|
F|--------------|      x4
C|-0---000-8----|
G|-0---000-8----|
C|-0---000-8----|
       ...


Riff VI (6:33)

D|------------------|-------------------|
A|------------------|-------------------|
F|------------------|-------------------|   
C|-5---7---8---0---3|-5---7---0---3-----|
G|-5---7---8---0---3|-5---7---0---3-----|
C|-5---7---8---0---3|-5---7---0---3-----|



Outro (7:02)

rhytm guitar:
D|------------------|-------------------|
A|------------------|-------------------|
F|------------------|-------------------|   
C|-5---7---8---0---3|-5---7---0---3-----|...
G|-5---7---8---0---3|-5---7---0---3-----|
C|-5---7---8---0---3|-5---7---0---3-----|

lead:
D|--------------------------------------|
A|--------------------------------------|
F|----9-10-----9-10--7--5--5/7----------|
C|-8--------7-------------------7-5-----|
G|----------------------------------8---|
C|--------------------------------------|

D|--------------------------------------------------------------------|
A|----------11--10h11p10---------10--10p8-----------------------------|
F|-----10-----------------9---10-----------9--------------------------|   
C|-8-----------------------------------------10------8~~--7~~---8~~---| ...
G|--------------------------------------------------------------------|
C|--------------------------------------------------------------------|





| b  bend
| r  release bend
| .  palm-mute
| /  slide up
| \  slide down
| h  hammer-on
| p  pull-off
| ~  vibrato



Rate and comment, I will appreciate!

Any suggestions? Write - dractus@gmail.com
Добавлено: 31.03.2012
Другие материалы по этой песне:

Страница создана 31.03.2012
http://primanota.ru/draconian/elysian-night-chords.htm
Привет, Гость.
Предлагаем пройти революционный курс по гитаре.
Подарок от PrimaNota.Ru, забирай!