PrimaNota.ru - самый крупный в мире бесплатный архив песенных текстов, аккордов, табулатур и нот


Draconian - Bloodflower - текст песни, таба, видео

Регистрация Запомнить меня
Войти через:  Facebook Google Twitter Vk Yandex Mail.ru

Draconian - Bloodflower - текст песни, таба, видео

Печатать
Просмотров: 675
Уроки эстрадного вокала в Санкт-Петербурге
Band : Draconian
Title : Bloodflower
Tabbed By : Yousif Jamal
Country : Baghdad : IraQ
Tuning : Standard
--------------------------------------------------
Intro :
[00:00 : 00:33]
Rhythm (Clean)
Fig.1
e]---------------------------------|
B]-------7-------7-----7-----------|
G]----6-------6--------------------|
D]--7------7-------7---------------|
A]---------------------------------|
E]---------------------------------|

Lead (Clean)
Fig.2
e]-------------------------------------------|
B]---s8--10-s-12--8-8s7---------s8---s10-7-6-|
G]------------------------7-6----------------|

After That Play This Part (Distortion)
[00:33 : 01:00]

Fig.3
e]----------------------------------------|
B]----------------------------------------|
G]-------66666666--44444444---22222222----|
D]-------77777777--66666666---44444444----|
A]----------------------------------------|
E]----------------------------------------|

Verse
[01:00 : 01:28]
Play Fig.3

Break :
[01:28 : 01:55]
Play this 2X
Fig.4
e]-------------------------------------------------------|
B]-------------------------------------------------------|
G]-------6 ------4--------6--4--4------6-----4----4---66-|
D]-------7-------6--------7--6--6------7-----6----6---77-|
A]-------------------------------------------------------|
E]-------------------------------------------------------|

[01:55 : 02:23]
Fig.3

Chorus :
[02:23 : 02:50]
Play This 3X
Fig.5
e]------------------------------|
B]------------------------------|
G]-------6 -----4------2-----4--|
D]-------7------6------4-----6--|
A]------------------------------|
E]------------------------------|

Play This For 1x
Fig.6
e]------------------------|
B]------------------------|
G]-------6 -----4------2--|
D]-------7------6------4--|
A]------------------------|
E]------------------------|

Solo :
[02 : 50 : 03 : 32]
Rhythm : Fig.3

Lead : http://tabs.ultimate-guitar.com/d/draconian/bloodflower_solo_guitar_pro.htm

Chorus :
[03 : 32 : 03 : 45]
Fig.6 (2x)

Verse :
[03 : 45 : 04 : 12]
Fig.3

Break :
[04 : 12 : 04 : 40]
Fig.4

Chorus :
[04 : 40 : 05 : 07]
Fig.5 + Fig.6

Outro : Piano
Добавлено: 18.03.2012
Другие материалы по этой песне:

Страница создана 18.03.2012
http://primanota.ru/draconian/bloodflower-chords.htm
Привет, Гость.
Предлагаем пройти революционный курс по гитаре.
Подарок от PrimaNota.Ru, забирай!