PrimaNota.ru - самый крупный в мире бесплатный архив песенных текстов, аккордов, табулатур и нот


Dr - Cano - таба, видео

Регистрация Запомнить меня
Войти через:  Facebook Google Twitter Vk Yandex Mail.ru

Dr - Cano - таба, видео

Печатать
Просмотров: 130
Уроки эстрадного вокала в Санкт-Петербурге
Canço Eric Porcuna i Jordi Laplaza

Guitarra 1 intro

------------------------------------------------------------|
------------------------------------------------------------|
---7/9------------------------------------------------------|
---5/7----------5-----7---------5-----7---------5-----7-----|
----------------5-----7---------5-----7---------5-----7-----|
----------0-0-0-3-0-0-5---0-0-0-3-0-0-5---0-0-0-3-0-0-5-----|

Guitarra 1 riff

---------------------------------------------------------------------|
---------------------------------------------------------------------|
---------------------------------------------------------------------|
---7-7-7-7-7-7--5-5-5-5-5-5--3-3-3-3-3-3--5-5-5-5-5-5------- X2----7-|
---7-7-7-7-7-7--5-5-5-5-5-5--3-3-3-3-3-3--5-5-5-5-5-5--------------7-|
---5-5-5-5-5-5--3-3-3-3-3-3--1-1-1-1-1-1--3-3-3-3-3-3--------------5-|

Repetim 2 cops el riff

Guitarra 1 Bridge

--------------------------|
--------------------------|
--------------------------|
---7---5---1---5----------|
---7---5---1---5---X2-----|
---5---3---3---3----------|


----------------0-0-----------------------0-0-------------|
----------------0-0-----------------------0-0-------------|
----------------0-0-----------------------0-0-------------|
---7-7-7-7-7-7--5-5-5-5-5-5--3-3-3-3-3-3--5-5-5-5-5-5-----|
---7-7-7-7-7-7--5-5-5-5-5-5--3-3-3-3-3-3--5-5-5-5-5-5-----|
---5-5-5-5-5-5--3-3-3-3-3-3--1-1-1-1-1-1--3-3-3-3-3-3-----|


Mateix riff

---------------------------------------------------------------------|
---------------------------------------------------------------------|
---------------------------------------------------------------------|
---7-7-7-7-7-7--5-5-5-5-5-5--3-3-3-3-3-3--5-5-5-5-5-5------- X3----7-|
---7-7-7-7-7-7--5-5-5-5-5-5--3-3-3-3-3-3--5-5-5-5-5-5--------------7-|
---5-5-5-5-5-5--3-3-3-3-3-3--1-1-1-1-1-1--3-3-3-3-3-3--------------5-|

Guitarra 1 Solo

(m fa mandra) (improvitza utilitzan aquesta escala A baix)

Guitarra 1 Final

-----------------------------------------------------------------------------|
-----------------------------------------------------------------------------|
-----------------------------------------------------------------------------|
---7-7-7-7-7-7--5-5-5-5-5-5--3-3-3-3-3-3--5-5-5-5-5-5------- X2----7-------7-|
---7-7-7-7-7-7--5-5-5-5-5-5--3-3-3-3-3-3--5-5-5-5-5-5--------------7-------7-|
---5-5-5-5-5-5--3-3-3-3-3-3--1-1-1-1-1-1--3-3-3-3-3-3--------------5-------5-|


Fet per Jordi solà


Escala Solo

---------------------------5-7-8---------------|
---------------------5-7-8---------------------|
-----------------5-7---------------------------|
-------------5-7-------------------------------|
---------5-7-----------------------------------|
---5-7-8---------------------------------------|

---10-8--------------------------------------|
--------10-8---------------------------------|
-------------9-7-----------------------------|
------------------10-9-7---------------------|
-------------------------10-9-7--------------|
--------------------------------10-8-7-------|
Добавлено: 23.03.2012
Другие материалы по этой песне:
  • Аккорды и текст

Страница создана 23.03.2012
http://primanota.ru/dr/cano-chords.htm
Привет, Гость.
Предлагаем пройти революционный курс по гитаре.
Подарок от PrimaNota.Ru, забирай!