PrimaNota.ru - самый крупный в мире бесплатный архив песенных текстов, аккордов, табулатур и нот


Dr Sin - Think It Over - таба, видео

Регистрация Запомнить меня
Войти через:  Facebook Google Twitter Vk Yandex Mail.ru

Dr Sin - Think It Over - таба, видео

Печатать
Просмотров: 109
Tom: A


Intro:
e|---------------------------------------------|
B|---------------------------------------------|
G|-------7----------6----------7----------6----|
D|-----7----------7----------7----------7------|
A|---7----------7----------7----------7--------|
E|-5----------5----------5----------5----------|

e|---------------------------------------------|
B|---------------------------------------------|
G|-------7----------6----------7----6----------|
D|-----7----------7----------7------7----------|
A|---7----------7----------7--------7----------|
E|-5----------5----------5----------5----------|

e|----------------------------------------------------------|
B|-------4-5--------2----------4-5--------2----------4-5----|
G|-----6----------4----------6----------4----------6--------|
D|---6----------4----------6----------4----------6----------|
A|-4----------2----------4----------2----------4------------|
E|----------------------------------------------------------|
Girl! Leave it all behind Cause I can see it in your eyes

e|--------------------|
B|-------2-4----------|
G|-----4-------6------|
D|---4---------7------|
A|-2-----------7------|
E|-------------5------|
Just give us another try

e|-----------------------------------------------------------|
B|-------4-5--------2-4--------4-5--------2-4--------4-5-----|
G|-----6----------4----------6----------4----------6---------|
D|---6----------4----------6----------4----------6-----------|
A|-4----------2----------4----------2----------4-------------|
E|-----------------------------------------------------------|
I can't see your crying I can't stay away from you

e|--------------------9-9-7-----------------------------------|
B|-------2-4----------9-9-9-----------------------------------|
G|-----4------6-----------------------------------------------|
D|---4--------7-----------------------------------------------|
A|-2----------7------------------------7~---------------------|
E|------------5---------------7-9-12-9------------------------|
We can work it out                   Cause we can't let it die


Refrão
e|-------------------------------------|
B|-------------------------------------|
G|-------------------------------------|
D|-9-----------------------------------|
A|-7----7----4-------------7~----------|
E|------5----2----7-9-12-9-------------|
Take my hand, I'll lead the way    Open your heart, don't be afraid

e|-------------------------------------|
B|-------------------------------------|
G|-------------------------------------|
D|-9-----------------------------------|
A|-7----7----4-------------------------|
E|------5----2-------------------------|
We had it all, now I can see     As you once said, we were mean to be

e|-------------------------------------|
B|-------------------------------------|
G|-------------------------------------|
D|-9-----------------------------------|
A|-7----7----4-------------7~----------|
E|------5----2----7-9-12-9-------------|
You know, I'll never let you down     So think it over

e|-------------------------------------|
B|-------------------------------------|
G|-------------------------------------|
D|-9-----------------------------------|
A|-7----7----4-------------------------|
E|------5----2-------------------------|
This time we're gonna make it right     So think it over

Repete Intro

e|-----------------------------------------------------|
B|-------4-5----------2---0--------4-5----------2----0-|
G|-----6----------4--------------6----------4----------|
D|---6----------4---4---4------6----------4---4---4----|
A|-4----------2--------------4----------2--------------|
E|-----------------------------------------------------|
How can I follow you babe?     But I don't think we really tried

e|----------------------------------|
B|-------4-5----------2---4---------|
G|-----6----------4------------6----|
D|---6----------4---4---4------7----|
A|-4----------2----------------7----|
E|-----------------------------5----|
Just because of our pride

e|-----------------------------------------------------|
B|-----------------------------------------------------|
G|---------------------------------6-------------------|
D|---------------------------------7-------------------|
A|-4~---6~---7~---9~---11~---14~---7-------------------|
E|---------------------------------5-------------------|
All I know is we were wrong     And all your tears have been dried

Just search inside your heart

e|-----------------------------------------------------|
B|-----------------------------------------------------|
G|-----------------------------------------------------|
D|-2-4-4s7-6s7-6------------2~-------------------------|
A|------------------2-4-7-4----------------------------|
E|-----------------------------------------------------|
You'll see, our loe never died

Refrão

Solo:
e|------------------------------------------------------------|
B|------------------------------------------------------------|
G|-9-11-11s13-9r--------9-11-11b13-9-11-9h11—11b13-9-11-------|
D|-----------------9h11----------------------------------9h11-|
A|------------------------------------------------------------|
E|------------------------------------------------------------|

e|------------------------------------------------------------|
B|------------------------------------------------------------|
G|-9-9-9-8-4h6h4----------------------------------------------|
D|----------------6-4------------2-----2-----4---2h4----------|
A|--------------------7-2-4--2-4---4-4---4-4---4--------------|
E|------------------------------------------------------------|

e|----------------------------------------9h10h12-------------|
B|-9-12-12b14—12h9—-10h9----------9-10-12---------------------|
G|----------------11-----11-9-11------------------------------|
D|------------------------------------------------------------|
A|------------------------------------------------------------|
E|------------------------------------------------------------|

e|-12h9---10h9--------------------9---------------------------|
B|-----12------12-10-9------------12b14--9-12-9---------------|
G|--------------------11b13-9~------------------11~-11~--11~--|
D|------------------------------------------------------------|
A|------------------------------------------------------------|
E|------------------------------------------------------------|

e|------------------------------------------------------------|
B|-9h10--------------------------9----------------------------|
G|------11-9h11h9----------------9-9~-------------------------|
D|----------------11-9-11--9-11--9----------------------------|
A|------------------------------------------------------------|
E|------------------------------------------------------------|

e|-------------------------------------|
B|-------------------------------------|
G|-------------------------------------|
D|-9-9----------------9-9--------------|
A|-7-7-----7-7--------7-7-------7-7----|
E|---------5-5------------------5-5----|
We've been alone for so long     I just can't take anymore

e|-------------------------------------|
B|-------------------------------------|
G|-------------------------------------|
D|-9-9----------------9-9--------------|
A|-7-7-----7-7--------7-7-------7-7----|
E|---------5-5------------------5-5----|
And I know that we will make it work out anyhow

e|-------------------------------------|
B|-------------------------------------|
G|-------------------------------------|
D|-9-9----------------9-9--------------|
A|-7-7-----7-7--------7-7-------7-7----|
E|---------5-5------------------5-5----|
No one can tell us wat is good or bad      It's up to us to decide

e|-------------------------------------|
B|-------------------------------------|
G|-------------------------------------|
D|-9-9----------------9-9--------------|
A|-7-7-----7-7--------7-7-------7-7----|
E|---------5-5------------------5-5----|
Our love is stronger than the things that we have said and done
Добавлено: 23.04.2012
Другие материалы по этой песне:
  • Аккорды и текст

Страница создана 23.04.2012
http://primanota.ru/dr-sin/think-it-over-chords.htm
Привет, Гость.
Предлагаем пройти революционный курс по гитаре.
Подарок от PrimaNota.Ru, забирай!