PrimaNota.ru - самый крупный в мире бесплатный архив песенных текстов, аккордов, табулатур и нот


Dr Sin - Someone to Blame - текст песни, таба, видео

Регистрация Запомнить меня
Войти через:  Facebook Google Twitter Vk Yandex Mail.ru

Dr Sin - Someone to Blame - текст песни, таба, видео

Печатать
Просмотров: 47
Dr. Sin - Someone to Blame

(intro)

E |-----------------------|--------------------------------|----------------------------|
B |-----------------------|--------------------------------|----------------------------|
G |-------------7--11-10-7|-----------------------------77.|---|7-8-7-------------------|
D |--------7--9-----------|-9-8-7-------------7-8-8-9-9----|----------9-8-7-------7-----|
A |--7-8-9----------------|-------9-8-7--7-8-9-------------|-----------------10-7----10-|
E |-----------------------|--------------------------------|----------------------------|


E |--------------------------|
B |--------------------------|
G |--------------------------|
D |--5-5-6-6-7-7--7b(7)h5----|
A |--5-5-6-6-7-7----------7--|
E |--------------------------|


E |-----------------------|--------------------------------|----------------------------|
B |-----------------------|--------------------------------|----------------------------|
G |-------------7--11-10-7|-----------------------------77.|---|7-8-7-------------------|
D |--------7--9-----------|-9-8-7-------------7-8-8-9-9----|----------9-8-7-------7-----|
A |--7-8-9----------------|-------9-8-7--7-8-9-------------|-----------------10-7----10-|
E |-----------------------|--------------------------------|----------------------------|

                  .full.

E |----------------------------|
B |---------------10b(10)h8----|
G |-------------------------9.-|
D |--5-5-6-6-7-7---------------|
A |--5-5-6-6-7-7---------------|
E |----------------------------|


(riff 1)

E |-------------------------|
B |-------------------------|
G |---------------------3---|
D |--2-2--x-2-2----2-2--3---|  (8x)
A |--2-2--x-2-2----2-2--1---|
E |--0-0--x-0-0----0-0------|


(riff 2)

E |-----0--------|------0------------------|
B |-------0------|--------0----------------|
G |---------3~~--|----------3~~------------|
D |--------------|--------------(3)full(3)-|
A |--------------|-------------------------|
E |--0-----------|--0----------------------|


E |--------------------|------------------|-----------------------|
B |--------------------|------------------|-----------------------|
G |--------9--9--x--9--|-------9-x-9--9---|--12--12--10--12--12~~-|  (2x)
D |--7h9--x9--9--x--9--|--7h9----x-9--9---|--12--12--10--10-------|
A |--7h9--x7--7--x--7--|--7h9--7-x-7--7---|--10--10--08--08-------|
E |--------------------|------------------|-----------------------|


(repeat riff 1 riff 2)
(chorus)

(riff  3 - before solo)

E |----------------------|----------------------------|
B |-----------------------|---------------------------|
G |-----------------------|---------------------------| (2x)
D |---------------2.2-1~~-|---------------------------|
A |--------0-1-4----------|--------0-1-4--5.-5-4.-----|
E |--0-1-3----------------|--0-1-4--------------------|


(solo)

E |-------------------------|-------16-19-18-19-19b-19b--19h18h19~~--|
B |------9-12-11~~----------|-----17---------------------------------|
G |----9----------11-13~----|--\16-----------------------------------|
D |--9------------------9~~-|----------------------------------------|
A |-------------------------|----------------------------------------|
E |-------------------------|----------------------------------------|


E |----------------------------|--|
B |--17-------------------17~~-|--|
G |-----(14b)14----------------|--|
D |-------------14-16-17-------|--|
A |----------------------------|--|
E |----------------------------|--|
Добавлено: 23.09.2015
Другие материалы по этой песне:
  • Аккорды и текст

Страница создана 26.07.2012
http://primanota.ru/dr-sin/someone-to-blame-chords.htm
Привет, Гость.
Предлагаем пройти революционный курс по гитаре.
Подарок от PrimaNota.Ru, забирай!