PrimaNota.ru - самый крупный в мире бесплатный архив песенных текстов, аккордов, табулатур и нот


Dr Sin - Isolated - текст песни, таба, видео

Регистрация Запомнить меня
Войти через:  Facebook Google Twitter Vk Yandex Mail.ru

Dr Sin - Isolated - текст песни, таба, видео

Печатать
Просмотров: 155
Авторы: Ivan Busic, Andria Busic, Edu Ardanuy, Marinho Nobre

Tom: E
                

Intro
Q=138
4/4
Gtr I

E E E E E E E E E E E E E E E E
||------12---11-------|-10------9-------8-|
||o-----12---12-------|-10-----10-------8-|
||------13---11-------|-11------9-------9-|
||--------------------|-------------------|
||o-------------------|-------------------|
||--0-0----0----0-0-0-|----0-0----0-0-0---|



+E E E E E E E E E E E E E S S S S E
|-(8)-----7-(7)-5-----7-|---5-------------------|
|-(8)-(8)-8-(8)-7-----8-|---7-------------------|
|-(9)-(9)-7-----7-----7-|---7-------------------|
|-----------------------|-------------------5---|
|-----------------------|-----------------------|
|------0-----0----0-0---|-0---0-0-0-4-5-6-7-----|



Q E E E E E E E E E E E E E E
|----12---11-------|-15-----14------------|
|----12---12-------|-15-----15------------|
|----13---11-------|-16-----16-------9b11r|
|------------------|----------------------|
|------------------|----------------------|
|-------0----0-0-0-|----0-0----0-0-0------|


+S S S S S S S S S S S S E E E E E E S S S S S E.

|-------------------------------15-|---14---12-----------------||
|-------------------------------15-|---15---14----------------o||
|-(9)-7-------------------------16-|---14---14-----------------||
|-------9-8-7----7-8-7-------------|--------------12-14-16-12--||
|-------------10-------10-7--------|------------12------------o||
|----------------------------------|---------------------------||



Q. E +H +E E E E H Q. E +H +E E e E E E E E
|---------------|------------------|---------------|-----0-0--0-0-0-0-0-|
|---------------|-----9------9-----|---------------|-----5-5-/5-5-4-2p0-|
|-7----6-(6)----|-(6)---9----9-----|-6----8-(8)----|-(8)----------------|
|-7----7-(7)----|-(7)-----9-(9)----|-7----9-(9)----|-(9)----------------|
|-5----4-(4)----|-(4)--------------|-4----6-(6)----|-(6)----------------|
|---------------|------------------|---------------|--------------------|



Q. E +H +E E E E +Q. E
|---------------|-------------------|
|---------------|-----9-------------|
|-7----6-(6)----|-(6)---9-----------|
|-7----7-(7)----|-(7)-----9-(9)---4-|
|-5----4-(4)----|-(4)-------------2-|
|---------------|-------------------|



+E a E E E a E E E a E +E E E E E E E E
|-------------------------|--------------------|
|-------------------------|--------------------|
|-------------------------|--------------------|
|-(4)---4-4-4---4-4-4---4-|-(4)----------------|
|-(2)-0-2-2-2-0-2-2-2-0-2-|-(2)-----------5-7--|
|-------------------------|-----3-4-5-6-7------|



E E Q E E E E E E Q E E E E
||-----------------------|---------------------|
||-----------------------|---------------------|
||-----------------------|---------------------|
||-----(9)-(11)p(9)---11-|-12-11-12----12p11p9-|
||------7----7---7-----7-|--7--7--7-----7--7-7-|
||---0-------------------|---------------------|



H. Q Q E E E E +E E
|---------|-7---------10-(10)-------|
|---------|-8----10---10-(10)-------|
|---------|-------9-----------------|
|-11---9--|-------------------------|
|-7\\--7--|-------------------------|
|---------|--------------------0----|



+Q Q E E E E E E Q E E E E H. Q E E E E E E +E E
|------------------|----------------------|--------------|-7------------------|
|------------------|----------------------|--------------|-8-----10-----------|
|------------------|----------------------|--------------|--------9---7-(7)---|
|-----9--11p9---11-|-12--11-12----12p11p9-|-11--------9--|------------7-(7)---|
|-----7---7-7----7-|--7---7--7-----7--7-7-|-7\\-------7--|--------------------|
|-(0)--------------|----------------------|--------------|---0-0----0-------0-|



+E E Q E E E E E E Q E E E E H. Q Q E E E E +E E
|--------------------|---------------------|-------------|-7---------10-(10)---|
|--------------------|---------------------|-------------|-8----10---10-(10)---|
|--------------------|---------------------|-------------|-------9-------------|
|-------9--11p9---11-|-12-11-12----12p11p9-|-11-------9--|---------------------|
|-------7---7-7----7-|--7--7--7-----7--7-7-|--7-------7--|---------------------|
|-(0)-0--------------|---------------------|-------------|-------------------0-|



+E E Q E E E E E E Q E E E E
|--------------------|---------------------|
|--------------------|---------------------|
|--------------------|---------------------|
|-------9--11p9---11-|-12-11-12----12p11p9-|
|-------7---7-7----7-|--7--7--7-----7--7-7-|
|-(0)-0--------------|---------------------|



E E E E E S S S S S S S S S S S S S S S S S S E E
|------------------------|-----------------------------|
|------------------------|-8-8-5---5-5-----------------|
|--------------4-7-7-4---|-------7-----7-4-------4-----|
|-11-9-7-9---7---------7-|-----------------7-5-7---5-7-|
|--7-7-7-7---------------|-----------------------------|
|------------------------|-----------------------------|


Chorus

E E E E E E E E E E Q E E +E E +E E H Q H Q. E
|----5--5--5-5-5-5-5-|--5-5-5--5-5-(5)-3-|-(3)-3-3----3--|-3----------5--|
|---10-10-10-9-9-9-5-|-10-5-9--7-5-(5)-8-|-(8)-8-7----3--|-5----5----10--|
|--------------------|-------------------|---------------|------7--------|
|--------------------|-------------------|---------------|---------------|
|--------------------|-------------------|---------------|---------------|
|--------------------|-------------------|---------------|---------------|



+E E E E E E E E E E Q E E +E E
|--(5)--5--5--5-5-5-5-5-|--5-5-5--5-5-(5)-3-|
|-(10)-10-10-10-9-9-9-5-|-10-5-9--7-5-(5)-8-|
|-----------------------|-------------------|
|-----------------------|-------------------|
|-----------------------|-------------------|
|-----------------------|-------------------|



E E Q. Q E +E E E E E E E E
|-3-3-3-----3-|-(3)-10-10-10-10-10-10-10---|
|-8-8-7-----3-|-(3)-15-15-15-14-14-10-10---|
|-------------|----------------------------|
|-------------|----------------------------|
|-------------|----------------------------|
|-------------|----------------------------|


~~~

E E Q E E E E E E Q E E E E h. Q Q E E E E +E E
|------------------|---------------------|-------------|-7---------10-(10)---|
|------------------|---------------------|-------------|-8----10---10-(10)---|
|------------------|---------------------|-------------|-------9-------------|
|-----9--11p9---11-|-12-11-12----12p11p9-|-11-------9--|---------------------|
|-----7---7-7----7-|--7--7--7-----7--7-7-|--7-------7--|---------------------|
|---0--------------|---------------------|-------------|-------------------0-|



+Q Q E E E E E E Q E E E E H. Q E E E E E E +E E
|-------------------|---------------------|-------------|-7------------------|
|-------------------|---------------------|-------------|-8-----10-----------|
|-------------------|---------------------|-------------|--------9---7-(7)---|
|------9--11p9---11-|-12-11-12----12p11p9-|-11\\-----9--|------------7-(7)---|
|------7---7-7----7-|--7--7--7-----7--7-7-|--7-------7--|--------------------|
|-(0)---------------|---------------------|-------------|---0-0----0-------0-|



+E E Q E E E E E E Q E E E E
|----------------------|---------------------|
|----------------------|---------------------|
|----------------------|---------------------|
|-------9--11p=9----11-|-12-11-12----12p11p9-|
|-------7---7-(7)----7-|--7--7--7-----7--7-7-|
|-(0)-0----------------|---------------------|



H. q Q E e E E +E E
|-------------|-7---------10-(10)---|
|-------------|-8----10---10-(10)---|
|-------------|-------9-------------|
|-11-------9--|---------------------|
|--7-------7--|---------------------|
|-------------|-------------------0-|



+E E Q E E E E E E Q E E E E
|--------------------|------------------------|
|--------------------|------------------------|
|--------------------|------------------------|
|-------9--11p9---11-|-12-11-12----12p11p==9--|
|-------7---7-7----7-|--7--7--7-----7-(7)-(7)-|
|-(0)-0--------------|------------------------|



E E E E Q S S S S S E. s S S S S S S S S S E
|------------------------|-----------------------------|
|------------------------|-8p5---5---------------------|
|------------------4-7-4-|---------7-4---------4---4---|
|---------------/7-------|-------------8-7-5-7---7---7-|
|-10-9-10-7--------------|-----------------------------|
|------------------------|-----------------------------|



E E E E E E E E E E Q E E +E E +E E H Q H Q. E
|----5--5--5-5-5-5-5-|--5-5-5--5-5-(5)-3-|-(3)-3-3----3--|-3----------5-|
|---10-10-10-9-9-9-5-|-10-5-9--7-5-(5)-8-|-(8)-8-7----3--|-5----5----10-|
|--------------------|-------------------|---------------|------7-------|
|--------------------|-------------------|---------------|--------------|
|--------------------|-------------------|---------------|--------------|
|--------------------|-------------------|---------------|--------------|



+E E E E E E E E E E Q E E +E E
|--(5)--5--5--5-5-5-5-5-|--5-5-5--5-5-(5)-3-|
|-(10)-10-10-10-9-9-9-5-|-10-5-9--7-5-(5)-8-|
|-----------------------|-------------------|
|-----------------------|-------------------|
|-----------------------|-------------------|
|-----------------------|-------------------|



E E Q. Q E +E E E E E E E E
|--3--3-3-------3-|-(3)-10-10-10-10-10-10-10-|
|-(8)-8-7-------3-|-(3)-15-15-15-14-14-10-10-|
|-----------------|--------------------------|
|-----------------|--------------------------|
|-----------------|--------------------------|
|-----------------|--------------------------|



E E E E E E E E E E E E E E +E E
|--7--7--7--7--7--7--7-7-|--7-7-7-7-7-7-(7)--5-|
|-12-12-12-12-11-11-11-7-|-12-7-9-7-9-7-(7)-10-|
|------------------------|---------------------|
|------------------------|---------------------|
|------------------------|---------------------|
|------------------------|---------------------|



+E E E E E E E E E E E E E E E E
|--(5)--5--5--5-5-5-5-5-|-5-5-5-5-5-5-5-5-|
|-(10)-10-10-10-9-9-9-5-|-7-5-7-5-7-5-7-5-|
|-----------------------|-----------------|
|-----------------------|-----------------|
|-----------------------|-----------------|
|-----------------------|-----------------|



E E E E E E E E E E Q E E +E E
|--7--7--7--7--7--7--7-7-|--7-7-7--7-7-(7)--5-|
|-12-12-12-12-11-11-11-7-|-12-7-9--9-7-(7)-10-|
|------------------------|--------------------|
|------------------------|--------------------|
|------------------------|--------------------|
|------------------------|--------------------|



E E Q E Q E E E Q E Q E
|--5--5-5----5--12-|-12-12-12----12--3-|
|-10-10-9----5--17-|-17-17-16----12--8-|
|------------------|-------------------|
|------------------|-------------------|
|------------------|-------------------|
|------------------|-------------------|



+E E E E E E E E +E E E E E E E E
|-(3)-3-3-3-3-3-3-10-|-(10)-10-10-10-10-10-10--7-|
|-(8)-8-8-7-7-3-3-15-|-(15)-15-15-15-15-14-10-12-|
|--------------------|---------------------------|
|--------------------|---------------------------|
|--------------------|---------------------------|
|--------------------|---------------------------|


+E E E Q Q. E E Q E Q.

|--(7)--7--7--7---2----|------12----10----||
|-(12)-12-12-11--10----|------------------||
|----------------------|---13-------11----||
|----------------------|------------------||
|----------------------|------------------||
|----------------------|------------------||


Guitar Solo
G5 A5 B5

E E E E E E E E Q E E +E E E E +Q +Q +Q +E E
||----------------------------|-------------------------------|-------------------------------24-|
||----------------------------|-24--24b26r22-(22)-------------|----------------------------------|
||-------------------------19-|-------------------21---21b23==|=(21)b23====(21)---(21)--(21)r----|
||----------------------21----|-------------------------------|----------------------------------|
||------------/21-17-22-------|-------------------------------|----------------------------------|
||---/19---15-----------------|-------------------------------|----------------------------------|


E5 G5 G5

+E Q. S E. E E +Q +E +E E E Q E
|-(24)--24b26---22-------17b19-|-(17)b19--(17)b19r(17)-14-17-17b19------|
|------------------24----------|------------------------------------17--|
|------------------------------|----------------------------------------|
|------------------------------|----------------------------------------|
|------------------------------|----------------------------------------|
|------------------------------|----------------------------------------|


G5 F#5 C#5
+E S S E +E +Q. E +E +E Q. S S S S S S

|-------------------------------14----|-(14)--(14)-14-----21-14-21-26-21-20-|
|-(17)b19r17-15-17-(17)b19-(17)-17b19-|-(17)-------17b19--------------------|
|-------------------------------------|-------------------------------------|
|-------------------------------------|-------------------------------------|
|-------------------------------------|-------------------------------------|
|-------------------------------------|-------------------------------------|


E5

S S S S S S S S S S S S S S E
|-14---14-19-14-19-17-14-14-17-14-------14-14---------|
|---------------------------------19-17-------20b22===|
|-----------------------------------------------------|
|-----------------------------------------------------|
|-----------------------------------------------------|
|-----------------------------------------------------|


+H.. E
+Q +E T T S S S S S S S S S

|-----------------------------------------------|
|-(20)---(20)r-17-19-17-14----14----------------|
|--------------------------17----17-16-14-------|
|-----------------------------------------16p14-|
|-----------------------------------------------|
|-----------------------------------------------|


F#5
+H.. E
S S S S S S E +Q +Q

|-------------------------------------|
|-------------------------------------|
|-------------------------------------|
|-------------------------------------|
|-16p--15-14-12-14-12-14-(14)--(14)---|
|-------------------------------------|


D5
+H.. E
S S S S S S S S S S S S S S S S S S S S S S S S

|-14------------------12----------------------------------------------------|
|---------------------------------------14----------------------------------|
|------14-13-11-13-14----14-13-11-13-14-------------------14----------------|
|------------------------------------------16-14-11-14-16-------------------|
|------------------------------------------------------------16-14-12-14-16-|
|---------------------------------------------------------------------------|


E5
+H.. E
S S S S S S S S S S S S Q +S +S S S

|--------------------------------------------------------------|
|--------------------------------------------------------------|
|-11-----------------9-----------------------------------------|
|--------------------------------------------------------------|
|------12-11-9-11-12---12-11-9-11-12-14b16==(14)-(14)r-14-12---|
|--------------------------------------------------------------|


+H.. E +W
S E. +H +E E +Q +E E E S S E +Q

|--------------------19b21==|=(19)-(19)r-19-17-16-------------|
|---------------------------|---------------------17----------|
|---------------------------|------------------------16-(16)--|
|---------------------------|---------------------------------|
|-14------------------------|---------------------------------|
|------12--(12)-(12)--------|---------------------------------|


A5 G5 F5
H. E E
T T T
+S T T T T T T T T T T T T T T T T T T T T T T T T T T T T T T

|----------15-17-19-20-22-20-19-17-15-17-19-20-22-20-19-17-15-17-19-20-22-20-19-17-15-17-19-20-|
|--------x-------------------------------------------------------------------------------------|
|-(16)-x---------------------------------------------------------------------------------------|
|----------------------------------------------------------------------------------------------|
|----------------------------------------------------------------------------------------------|
|----------------------------------------------------------------------------------------------|


A5 G5
+H. E E
T T T T T T T T S S S S S S S S S S S S S S S S S S

|-20--19-20-19-20-19-15-15-20-19-20-19-17-15-20s19-20-19-17-15-------------------|
|--------------------------------------------------------------17h18p17p15----15-|
|--------------------------------------------------------------------------17----|
|--------------------------------------------------------------------------------|
|--------------------------------------------------------------------------------|
|--------------------------------------------------------------------------------|


+H.. E
S S S S S S S S S S S S T T T T T T T T T T T T T T T T

|----------------------------------------------------------------------------------------|
|----------------------------------------------------------------------------------------|
|-17---16-14----14-16-17-16-14----14-16-17-16-14-12-14-16p14p12-11-12-14-12-11-9-11-12\\-|
|------------17----------------17--------------------------------------------------------|
|----------------------------------------------------------------------------------------|
|----------------------------------------------------------------------------------------|


A5

|--3--| |-3--| |-3-| |-3-|
S S S S S S S S S S S S Q. S S

|---------------------------------------|
|---------------------------------------|
|-11---9-7-9-11-9-7-5-7-9-7-5-7b9r==7-5-|
|---------------------------------------|
|---------------------------------------|
|---------------------------------------|


F5 A5 G5
~~~~~~~~~~~~

S E. +Q +E a E S S E +E E S S E +Q. E
|----------------------5---8-|-(8)-7-5-7-----------7-----|
|------------------3S5---5---|-----------8-(8)----10b12--|
|--7-------------------------|---------------------------|
|------7--(7)--(7)-----------|---------------------------|
|----------------------------|---------------------------|
|----------------------------|---------------------------|


C#5
+H.. E +H.. E

+Q. H E +E E E E Q E E
|--(7)-----8-------10----|-(10)--10----10----10----10-------------|
|-(10)----11b13----13b15-|-(13)--13b15-13b15-13b15-13b15----------|
|------------------------|----------------------------------11b13-|
|------------------------|----------------------------------------|
|------------------------|----------------------------------------|
|------------------------|----------------------------------------|


B5 A5

+E E E E E E E E
|------9-9-------9-9-------9-|
|------9-9-------9-9-------9-|
|-(11)-----11b13-----11b13---|
|----------------------------|
|----------------------------|
|----------------------------|


A5 C#5 B5 C# B5
+H. E E +H. E E

E E E E E E S +S S S E E H E E
|--9---------9-9-------9-----------------|----------------14b16r|
|--9---------9-9-------9-----------------|----------------------|
|-----11b13======11b13---11b13-(11)p9----|--9--11-11------------|
|-------------------------------------11-|----------------------|
|----------------------------------------|----------------------|
|----------------------------------------|----------------------|


B5 C# C#5 B5 A5
+Q E E +H S S S S S S S S S S S S S S S S

|-(14)b16--17-14-(14)------|-12h19p12----19p12-------12h19p12----19p12---------|
|--------------------------|----------12-------19-12----------12-------19p12---|
|--------------------------|---------------------------------------------------|
|--------------------------|---------------------------------------------------|
|--------------------------|---------------------------------------------------|
|--------------------------|---------------------------------------------------|



C#5 B5 B5
|-12h19p12------19p12--------19b-19-|-21-19-17-16---------------------------------------|
|-----------12---------19p12--------|-------------19-17-16-17-19-17-16------------------|
|-----------------------------------|----------------------------------17-18-16-14------|
|-----------------------------------|---------------------------------------------------|
|-----------------------------------|---------------------------------------------------|
|-----------------------------------|---------------------------------------------------|



|--------------------------------------|
|--------------------------------------|
|--------------------------------------|
|--18-16-14-13-14-16-14-13-------------|
|---------------------------15---------|
|--------------------------------------|


E5
+H.. E

S S S S S S S S S S S S Q. E
|---------------------------------------------||
|---------------------------------------------||
|---------------------------------------------||
|---------------------------------------------||
|-16---14-12----------------------------------||
|------------16-14-12-11-12-14-12-11-9-7----0-||



+Q E E E E E E E E E E E E E E
|------12---10-------|-10------9-------8-|
|------12---12-------|-10-----10-------8-|
|--------------------|-------------------|
|--------------------|-------------------|
|--------------------|-------------------|
|-(0)-----0----0-0-0-|----0-0----0-0-0---|



+E E E E E E E E E E E E E S S S S E
|-(8)-7-7-5-5-----7-|---5-------------------|
|-(8)-8-8-7-7-----7-|---7-------------------|
|-------------------|-----------------------|
|-------------------|-------------------5---|
|-------------------|-----------0-2-3-4-----|
|-------------0-0---|-0---0-0-0-------------|



Q Q E E E E E E E E E E E E
|----12--10-------|-10-----10------------|
|----12--12-------|-10-----10------------|
|-----------------|-----------------9b11r|
|-----------------|----------------------|
|-----------------|----------------------|
|-----------0-0-0-|----0-0----0-0-0------|


+S S S S S S S S S S S S E E E E E E S S S S S E.

|----------------------------------|---10---------------------|
|-------------------------------12-|---10---10----------------|
|-(9)-7-------------------------12-|---------9-----7-9-11p7---|
|-------9-8-7----7-8-7-------------|-------------7------------|
|-------------10-------10-7--------|--------------------------|
|----------------------------------|--------------------------|



E E E E E E E E E E E E E E E E
|-----12---10-------|-10------9-------8-|
|-----12---12-------|-10-----10-------8-|
|-------------------|-------------------|
|-------------------|-------------------|
|-------------------|-------------------|
|-0-0----0----0-0-0-|----0-0----0-0-0---|


PM------|

+E E E E E E E E E E E E E S S S S E
|-(8)-7-7-5-5-----7-|---5-------------------|
|-(8)-8-8S7-7-----7-|---7-------------------|
|-------------------|-----------------------|
|-------------------|-------------------5---|
|-------------------|-----------0-2-3-4-----|
|-------------0-0---|-0---0-0-0-------------|



E E E E E E E E E E E E E E E E
|------12---10-------|-10------10------------|
|------12---12-------|-10------10------------|
|--------------------|------------------9b11r|
|--------------------|-----------------------|
|--------------------|-----------------------|
|---0-----0----0-0-0-|----0--0----0-0-0------|


+S S S S S S S S S S S S E E E E E E S S S S S E. Q. h +E
|-----------------------------------|---10---------------------|-------------*|
|--------------------------------12-|---10----10---------------|-------------*|
|-(9)-7--------------------------12-|----------9-----7-9-11-7--|-------------*|
|-------9-8--7----7-8-7-------------|--------------7-----------|-7----9-(9)--*|
|--------------10-------10-7--------|--------------------------|-5----7-(7)--*|
|-----------------------------------|--------------------------|-------------*|

Добавлено: 03.04.2012
Другие материалы по этой песне:

Страница создана 08.03.2012
http://primanota.ru/dr-sin/isolated-chords.htm
Привет, Гость.
Предлагаем пройти революционный курс по гитаре.
Подарок от PrimaNota.Ru, забирай!