PrimaNota.ru - самый крупный в мире бесплатный архив песенных текстов, аккордов, табулатур и нот


Dr Sin - Have You Seen The Rain - таба, видео

Регистрация Запомнить меня
Войти через:  Facebook Google Twitter Vk Yandex Mail.ru

Dr Sin - Have You Seen The Rain - таба, видео

Печатать
Просмотров: 189
Tom: C#
                

Intro:

|-------------------------|-------------------------|
|----------6~-------------|---------7-6~------------|
|----6-------6---4~-------|-----6-------6---4~------|
|--6---6-------6----------|---6---6-------6---------|
|4-------4----------------|-4-----------------------|
|-------------------------|-------------------------|
                                                 Al.
|-------------------------|-------------------------|
|----------6~-------------|---------7-6~------------|
|----6-------6---4~-------|-----6-------6---4~------|
|--6---6-------6----------|---6---6-------6------4~-|
|4-------4----------------|-4-----------------------|
|-------------------------|-------------------------|

Verso:
                       AH
|-------------------------|-------------------------|
|-------------------------|-------------------------|
|-6----6------6----6------|-6----6------6----6~-----|
|-6----6------6----6------|-6----6------6----6~-----|
|-4----4------4----4---2~-|-4----4------4----4~-----|
|-------------------------|---------------------1-2-|

|-----------------------------------------------------|
|-9~----13-----11-----9----7-----------7-6~-----------|
|-8~------------------------8b10r8p6-------6---4~-----|
|-6~-/13--13\11--11\10-10\8----------6-------6-----4~-|
|-----------------------------------------------------|
|-----------------------------------------------------|
                       AH
|-------------------------|-------------------------|
|-------------------------|-------------------------|
|-6----6------6----6------|-6----6------6----6~-----|
|-6----6------6----6------|-6----6------6----6~-----|
|-4----4------4----4---2~-|-4----4------4----4~-----|
|-------------------------|---------------------1-2-|

|---------------9----b13r11-9----9-9~-----------------|
|-9~-------9h11---11----------11-------7-6~-----------|
|-8~---------------------------------------6---4~-----|
|-6~---------------------------------6-------6-----3--|
|--------------------------------------------------3--|
|--------------------------------------------------1--|

Refrao
                 PM......   PM.....   PM........
|-----------------------------------------------------|
|-----------------------------------------------------|
|-------------------------6---6-----5---5-------3-----|
|-4-----------6------6p4--6-6---6---5-5---5-----3--3--|
|-4-----------6----6------4-------3-3-------1-1-1--3--|
|-2-----------4--4---------------------------------1--|

                 PM......   PM.....   PM........
|-----------------------------------------------------|
|-----------------------------------------------------|
|-------------------------6---6-----5---5-------3-----|
|-4-----------6------6p4--6-6---6---5-5---5-----3--3--|
|-4-----------6----6------4-------3-3-------1-1-1--3--|
|-2-----------4--4---------------------------------1--|

|-----2-------------------11b|
|-----2----------------------|
|-----3----------------------|
|-4---4-------6--------------|
|-4---4-------6--------------|
|-2---2-------4--------------|

Verso 2
                                                Al.
|-------------------------|-------------------------|
|----------6~-------------|---------7-6~------------|
|----6-------6---4~-------|-----6-------6---4~------|
|--6---6-------6----------|---6---6-------6------4~-|
|4-------4----------------|-4-----------------------|
|-------------------------|-------------------------|
                       AH
|-------------------------|-------------------------|
|-------------------------|-------------------------|
|-6----6------6----6------|-6----6------6----6~-----|
|-6----6------6----6------|-6----6------6----6~-----|
|-4----4------4----4---2~-|-4----4------4----4~-----|
|-------------------------|---------------------1-2-|
              PM..
|------------11b13-11b13-11b13-11b13r11-9~-----------------|
|-9~-------9--------------------------------7-6~-----------|
|-8~-----8--------------------------------------6---4~-----|
|-6~--------------------------------------6-------6-----4~-|
|----------------------------------------------------------|
|----------------------------------------------------------|
                       AH
|-------------------------|-------------------------|
|-------------------------|-------------------------|
|-6----6------6----6------|-6----6------6----6~-----|
|-6----6------6----6------|-6----6------6----6~-----|
|-4----4------4----4---2~-|-4----4------4----4~-----|
|-------------------------|---------------------1-2-|

|-------------16~~-----------------------------------------|
|-9~----------19b21~------------------------7-6~-----------|
|-8~--------------------------------------------6---4~-----|
|-6~--------------------------------------6-------6-----3--|
|-------------------------------------------------------3--|
|-------------------------------------------------------1--|
Refrao
                 PM......   PM.....   PM........
|-----------------------------------------------------|
|-----------------------------------------------------|
|-------------------------6---6-----5---5-------3-----|
|-4-----------6------6p4--6-6---6---5-5---5-----3--3--|
|-4-----------6----6------4-------3-3-------1-1-1--3--|
|-2-----------4--4---------------------------------1--|

                 PM......   PM.....   PM........
|-----------------------------------------------------|
|-----------------------------------------------------|
|-------------------------6---6-----5---5-------3-----|
|-4-----------6------6p4--6-6---6---5-5---5-----3--3--|
|-4-----------6----6------4-------3-3-------1-1-1--3--|
|-2-----------4--4---------------------------------1--|

|-----2----------------------|
|-----2----------------------|
|-----3----------------------|
|-4---4-------6--------------|
|-4---4-------6--------------|
|-2---2-------4--------------|

Solo: Escala: C#

Intro
                                                 Al.
|-------------------------|-------------------------|
|----------6~-------------|---------7-6~------------|
|----6-------6---4~-------|-----6-------6---4~------|
|--6---6-------6----------|---6---6-------6------4~-|
|4-------4----------------|-4-----------------------|
|-------------------------|-------------------------|
                                                 
|----------------------13v|-------------------------|
|----------6~-------------|---------7-6~------------|
|----6-------6---4~-------|-----6-------6---4~------|
|--6---6-------6----------|---6---6-------6------3--|
|4-------4----------------|-4--------------------3--|
|-------------------------|----------------------1--|

Refrao
                 PM......   PM.....   PM........
|-----------------------------------------------------|
|-----------------------------------------------------|
|-------------------------6---6-----5---5-------3-----|
|-4-----------6------6p4--6-6---6---5-5---5-----3--3--|
|-4-----------6----6------4-------3-3-------1-1-1--3--|
|-2-----------4--4---------------------------------1--|

                 PM......   PM.....   PM........
|-----------------------------------------------------|
|-----------------------------------------------------|
|-------------------------6---6-----5---5-------3-----|
|-4-----------6------6p4--6-6---6---5-5---5-----3--3--|
|-4-----------6----6------4-------3-3-------1-1-1--3--|
|-2-----------4--4---------------------------------1--|

|-----2----------------------|
|-----2----------------------|
|-----3----------------------|
|-4---4-------6--------------|
|-4---4-------6--------------|
|-2---2-------4--------------|etc

Добавлено: 07.03.2012
Другие материалы по этой песне:

Страница создана 07.03.2012
http://primanota.ru/dr-sin/have-you-seen-the-rain-chords.htm
Привет, Гость.
Предлагаем пройти революционный курс по гитаре.
Подарок от PrimaNota.Ru, забирай!