PrimaNota.ru - самый крупный в мире бесплатный архив песенных текстов, аккордов, табулатур и нот


Dr Sin - Fire - таба, видео

Регистрация Запомнить меня
Войти через:  Facebook Google Twitter Vk Yandex Mail.ru

Dr Sin - Fire - таба, видео

Печатать
Просмотров: 150
Tom: G


Autor: Andria Busic, Ivan Busic e Eduardo Ardanuy

00:00

|-----------------------|------------------|-------------------|--------------------|----------|
|---6\5\3--5\3----------|------------------|-------------------|--------------------|----------|
|---6\5\3--5\3-----3\2--|----2-------------|-------------------|--------------------|----------|
|---------------5-------|--5---5--3---3-5--|--5-3--------------|--------------------|----------|
|-----------------------|-----------5------|------5--4-3--1-5--|--4-3-1---------10--|----------|
|-----------------------|------------------|-------------------|--------3-2-1-0-----|----------|

---------------------------------|
------11-------------------------|
------10---------12--------------|
-----------------12--------------|
---10-----10-10------10--10------|
---------------------------------|



00:04

|----------------------------|-----------------------------|---------------------|------------|
|------------------------13--|------11---------------------|---------------------|------------|
|--12--13-14-15----------12--|------10---------12----------|--12--13-14-15---15--|------------|
|--12--13-14-15--------------|-----------------12----------|--12--13-14-15---15--|------------|
|-----------------10-10------|---10-----10-10-------10-10--|---------------------|------------|
|----------------------------|-----------------------------|---------------------|------------|

-----------------------------------|
----------11-----------------------|
----------10----------12-----------|
----------------------12-----------|
---10--10------10-10------10-10----|
-----------------------------------|



00:08

|----------------------------|---------------------------|----------------------|-----------|
|------------------------13--|------11-------------------|----------------------|-----------|
|--12--13-14-15----------12--|------10---------12--------|--12--13-14-15----15--|-----------|
|--12--13-14-15--------------|-----------------12--------|--12--13-14-15----15--|-----------|
|-----------------10-10------|---10-----10-10-----10-10--|----------------------|-----------|
|----------------------------|---------------------------|----------------------|-----------|

-----------------------------------|
----------11-----------------------|
----------10----------12-----------|
----------------------12-----------|
---10--10------10-10------10-10----|
-----------------------------------|






00:12

|-----------------------------|---------------------------|---------------------|-----------|
|-------------------------13--|-----11--------------------|---------------------|-----------|
|---12--13-14-15----------12--|-----10---------12---------|--12--13-14-15---15--|-----------|
|---12--13-14-15--------------|----------------12---------|--12--13-14-15---15--|-----------|
|------------------10-10------|--10-----10-10------10-10--|---------------------|-----------|
|-----------------------------|---------------------------|---------------------|-----------|

-----------------------------------|
----------11-----------------------|
----------10----------12-----------|
----------------------12-----------|
---10--10------10-10------10-10----|
-----------------------------------|



00:15

|----------------------------|-------------------------------|----------------|------------------|
|------------------------13--|--13-----11--------------------|----------------|-6\5\3--5\3-------|
|--12--13-14-15----------12--|--12-----10---------12---------|--12--13-14-15--|-6\5\3--5\3-------|
|--12--13-14-15--------------|--------------------12---------|--12--13-14-15--|---------------3--|
|-----------------10-10------|------10-----10-10------10-10--|----------------|-------------5----|
|----------------------------|-------------------------------|----------------|------------------|



00:18

|------------------------|-----------------------|------------------------------|
|------------------------|-----------------------|---------------------6--------|
|---2---2----------------|-----------------------|---------------------6--------|
|-----5----5--3-----3-5--|----5--3---------------|---------------------5--------|
|----------------5-------|----------5--4-3-1--5--|--4--3-1-------------6--------|
|------------------------|-----------------------|---------3--2-1--0------------|



A LETRA COMEÇA AGORA....

00:21
 I Should Have           Know      She       was     the

---------------|-------------------------------|-----------------|----------|
---------------|-------------------------------|-----------------|----------|
---------------|------------------8-------8\6--|--------6--5--3--|----------|
---------------|---------------8------10-------|-----------------|----------|
---------------|---------8/10------------------|-----------------|----------|
---------------|-------------------------------|-----------------|----------|






|---------------------------|----------------|---------------------|----------|
|---------------------------|----------------|-------------3--3----|----------|
|--------5\3----------------|----------------|-------------3--3----|----------|
|-------------5-3-----------|----------------|---------------------|----------|
|------------------4-3-1----|----------------|---------------------|----------|
|------------------------3--|-----3-3-3-3-3--|---3-3-3-3-3---------|----------|


00:26
                             She      really              loves         to

|--------------|----------------|------|---------------------|------------------------|
|--------------|------------6---|------|---------------------|------------------------|
|--------------|------------6---|------|---------8------8\6--|--------------6--5--3---|
|----5-—3/5----|------------5---|------|-------8----10-------|------------------------|
|--------------|---13-------6---|------|--8/10---------------|------------------------|
|--------------|----------------|------|---------------------|------------------------|


00:30
  Light the            fire

|----------------------|-----------------|---------------|------|--------------------|
|----------------------|-----------------|---------------|------|--------------------|
|---5\3----------------|-----------------|------------5b-|------|----5--3------------|
|--------5-3-----------|-----------------|---------------|------|----------5---------|
|------------4-3-------|-----------------|---------------|------|--------------------|
|-----------------0-3--|------3-3-3-3-3--|-3-3-3-3-3-----|------|--------------------|


00:34
                     She       loves  to           watch    it

|----------------------|--------|----------------|----------------------|-------------|
|----------------------|--------|----------------|----------------------|-------------|
|----------------------|--------|----------------|--------------3-------|-------------|
|--3-------------------|--------|----------------|------5\3-----3-------|-------------|
|-----5-4-3-1--3-1--3--|--------|----------------|----------------------|-------------|
|-------------------1--|--------|------------3---|---3-------3-----3-3--|-------------|

   burn
--------------------------------|
--------------------------------|
--3--------3--------------------|
--3--5-----3--5-------6---------|
-----5--------5-------6---------|
--------3--------3-3------------|








00:38
      Turns on when          the pretty         flame       destroy

|-------------------------|-------------------|-------------|-------------|------------------|
|-------------------------|-------------------|-------------|-------------|------------------|
|---------8---------------|-------------------|-------------|-------------|------------------|
|---------8---------------|----------------8--|-------------|-------------|------6-6---6-----|
|------------6-6-6-6-6-6--|--6-6-6-6-6-6-6-5--|-------------|-------------|------6-6---6-----|
|-------------------------|-------------------|----------5--|-----4-------|---4------4---4-4-|



00:42
 Her litle    boy                                          Melting

|--------------------------|------------------|------------------|-------------|-----------|
|--------------------------|------------------|------------------|-------------|-----------|
|--------------------------|------------------|------------------|-------------|--------6--|
|------5-6-5-6-------------|------------------|---------------10-|-------------|--------5--|
|------6-6-6-6---------5---|------------------|---------------8--|-------------|--------6--|
|---------------4-4-4--3---|--3-3-3-3-3-3--3--|-3-3-3-3-3-3-3----|-------------|-----------|


00:46
    All     his          hopes
|---------|-------|------------------|---------------|-------------------|-------------|
|---------|-------|------------------|---------------|-------------------|-------------|
|---------|-------|------------------|---------------|----------------2--|-------------|
|---------|--7----|---5----5----5----|---5-----------|----------------0--|------5------|
|---------|--5----|-----5----4----3--|-----1---------|----------2-3-4----|-------------|
|---------|-------|------------------|--------0-1-2--|--3-4-5-6----------|-------------|


00:50
              They     always        told     me     not        to        play    with
|-----------|--------|------------|---------------|------------------|-------------------|
|-----------|--------|------------|---------------|------------------|-------------------|
|-----------|--------|------------|---------------|------------------|-------------------|
|-----------|--------|------------|---------------|------------------|-------------------|
|-------5---|--------|--------3---|---------------|---------------6--|---------------8---|
|-------3---|--------|--------1---|------1-1-1-1--|--1-1-1-1-1-1--4--|---------------6---|


00:55

      fire                        They         always           said   I
|----------|--------|--------|--------------|-----------------|-----------|------------|
|----------|--------|--------|--------------|-----------------|-----------|------------|
|----------|--------|--------|--------------|---------------5-|-----------|------------|
|----------|--------|--------|--------------|---------------3-|-----------|------------|
|-------8--|-----8--|-----5--|--------------|-----------------|-----------|--------6---|
|-------6--|-----5--|-----3--|-----3-3-3-3--|-3-3-3-3-3-3-3---|-----------|--------4---|





1:03

    very           live                       wire
|-----------|------------|------------------|----------------------|------------------------|
|-----------|------------|------------------|----11----------------|--------------------13--|
|-----------|------------|------------------|----10-------12-------|-12-13-14-15--------12--|
|-------8---|------------|------------------|-------------12-------|-12-13-14-15------------|
|-------6---|--------8---|-----8-------10---|-10----10-10----10-10-|-------------10-10------|
|-----------|--------6---|-----5------------|----------------------|------------------------|






-------------------------|
-----11------------------|
-----10-------12---------|
--------------12---------|
--10----10-10----10-10---|
-------------------------|



1:09

|-------------------|----------------------------|---------------------------|--------|
|-------------------|--------11------------------|----------------------13---|--------|
|--12-13-14-15--15--|--------10--------12--------|--12-13-14-15---------12---|--------|
|--12-13-14-15--15--|------------------12--------|--12-13-14-15--------------|--------|
|-------------------|--10-10-----10-10----10-10--|---------------10-10-------|--------|
|-------------------|----------------------------|---------------------------|--------|

----------------------------|---------------------------|
------11--------------------|--------------------6------|
------10---------12---------|---12-13--14-15-----6------|
-----------------12---------|---12-13--14-15-----5------|
---10-----10-10------10-10--|--------------------6------|
----------------------------|---------------------------|



1:13

          I    should    have    Know that   she  would            burn  me

|------------|------------------|-------------|-------------------|---------------------|
|------------|------------------|-------------|-------------------|---------------------|
|------------|--------8----8\6--|------6-5-3--|--5\3--------------|---------------------|
|------------|------8---10------|-------------|------5-3----------|---------------------|
|------------|-8/10-------------|-------------|----------4-3-1----|---------------------|
|------------|------------------|-------------|----------------3--|-----3-3-3-3-3-------|





-------------------------|
---------------3--3------|
---------------3--3------|
-------------------------|
-------------------------|
---3-3-3-3-3-------------|



1:18
                                  It's    not  as          if  they     don't
|-------------|-------------|----------|------------------|----------|------------------|
|-------------|----------6--|----------|------------------|----------|------------------|
|-------------|----------6--|----------|---------8----8\6-|----6-5-3-|--5\3-------------|
|-----5-3-5---|----------5--|----------|-------8---10-----|----------|------5-3---------|
|-------------|--13------6--|----------|--8/10------------|----------|----------4-3-1---|
|-------------|-------------|----------|------------------|----------|----------------3-|


1:24

      warn  me                                                               just can't
|---------------|------------------|------------|------------------|-------|--------------|
|---------------|------------------|------------|------------------|-------|--------------|
|---------------|---------------5b-|-----5-3----|------------------|-------|--------------|
|---------------|------------------|---------5--|-3----------------|-------|--------------|
|---------------|------------------|------------|---5-4-3-1-3-1-3--|-------|--------------|
|----3-3-3-3-3--|-3-3-3-3-3-3-3----|------------|---------------1--|-------|----------3---|


1:29

  help      myself                        helpless          like      a   fragile mouth to
|-------------------|-------------------|-----------------|------------------|------|------|
|-------------------|-------------------|-----------------|------------------|------|------|
|------------3------|--3-----3----------|--8--------------|------------------|------|------|
|-----5\3----3------|--3-5---3-5-----8--|--6--------------|----------------8-|------|------|
|-------------------|----5-----5-----6--|----6-6-6-6-6-6--|--6-6-6-6-6-6-6-5-|------|------|
|---3-----3----3-3--|------3-----3-3----|-----------------|------------------|----5-|----4-|


1:33

   flames       she  calls       my       name                         It's  burning      a
|-----------------|-------------------|-----------------|-------------------|-------|--------|
|-----------------|-------------------|-----------------|-------------------|-------|--------|
|-----------------|-------------------|-----------------|-------------------|-------|-----6--|
|----6-6---6------|--5-6-5-6----------|-----------------|----------------10-|-------|-----5--|
|----6-6---6------|--6-6-6-6-------5--|-----------------|----------------8--|-------|-----6--|
|--4-----4---4-4--|----------4-4-4-3--|---3-3-3-3-3-3-3-|--3-3-3-3-3-3-3----|-------|--------|







1:37

    Trial
|----------|----------|----------------|-------------|-------------------|----------|
|----------|----------|----------------|-------------|-------------------|----------|
|----------|----------|----------------|-------------|----------------2--|----------|
|----------|---7------|--5----5---5----|--5----------|----------------0--|-----5----|
|----------|---5------|----5----4---3--|----1--------|----------2-3-4----|----------|
|----------|----------|----------------|------0-1-2--|--3-4-5-6----------|----------|


1:43

               They        always       told me          not      play         with
|-----------|------------|-----------|---------------|------------------|---------------|
|-----------|------------|-----------|---------------|------------------|---------------|
|-----------|------------|-----------|---------------|------------------|---------------|
|-----------|------------|-----------|---------------|------------------|----------8----|
|-------5---|------------|-------3---|---------------|---------------6--|----------6----|
|-------3---|------------|-------1---|-----1-1-1-1---|--1-1-1-1-1-1--4--|---------------|



1:50

      fire                     They        always              Said I     was       a
|---------|---------|---------|-----------|-------------------|-------|-------------------|
|---------|---------|---------|-----------|-------------------|-------|-------------------|
|---------|---------|---------|-----------|-------------------|-------|-------------------|
|---------|---------|---------|-----------|---------------10--|-------|-------------------|
|------8--|------8--|------5--|-----------|---------------8---|-------|----------4--------|
|------6--|------5--|------3--|---3-3-3-3-|-3-3-3-3-3-3-3-----|-------|----------6--------|


1:55

      very             live                  wire
|----------|---------|----------|-----------|-------|-------|-------|-------|-------|-------|
|----------|---------|----------|-----------|-------|-------|-------|-------|-------|-------|
|----------|---------|----------|-----------|-------|-------|-------|-------|-------|-------|
|-------8--|---------|----------|-----------|-------|-------|-------|-------|-------|-------|
|-------6--|------8--|-------8--|-------5/--|----5--|----5--|----5--|----5--|----5--|----5--|
|----------|------6--|-------5--|-------3/--|----3--|----3--|----3--|----3--|----3--|----3--|


2:03

|--------|--------|--------|-----|----------|-----|---------|
|--------|--------|--------|-----|----------|-----|---------|
|--------|--------|--3-----|-----|--5-------|-----|--10-12--|
|--------|--------|--3-----|-----|--5-------|-----|--10-12--|
|----5---|-5------|--------|-----|----------|-----|---------|
|----3---|-3------|--------|-----|----------|-----|---------|




2:12
2:20

|---------|-----------------|---------|----------|-----------|
|---------|-----------------|---------|----------|-----------|
|--3------|-----------------|---5-----|----------|--10-12----|
|--5------|-----------------|---5-----|----------|--10-12----|
|---------|-----------------|---------|----------|-----------|
|---------|-----------------|---------|----------|-----------|

--6\3-------3—11\6-------6--|--10\6-------6—13\10--------10----|
------4---4--------8---8----|-------6---6--------11----11------|
--------3------------8------|---------7-------------10---------|
----------------------------|----------------------------------|
----------------------------|----------------------------------|
----------------------------|----------------------------------|


2:34

|--11\8----------8—14\11---------11--|--15\10----------10-18-15----------15----|
|-------10----10--------13----13-----|--------11----11----------15----15-------|
|----------11--------------14--------|-----------12----------------15----------|
|------------------------------------|-----------------------------------------|
|------------------------------------|-----------------------------------------|
|------------------------------------|-----------------------------------------|

|--15-11----------11-18\15----------15--|--18\13----------13-13\10----------10---|
|--------11----11----------16----16-----|--------15----15----------11----11------|
|-----------12----------------15--------|-----------15----------------10---------|
|---------------------------------------|----------------------------------------|
|---------------------------------------|----------------------------------------|
|---------------------------------------|----------------------------------------|


2:38

|---12\9----------9-15\12----------12--|--18\14----------14—17\14----------14------|
|--------11----11---------14----14-----|--------15----15----------15----15---------|
|-----------12---------------15--------|-----------14----------------14------------|
|--------------------------------------|-------------------------------------------|
|--------------------------------------|-------------------------------------------|
|--------------------------------------|-------------------------------------------|

|---6\3-------3—11\6-------6--|--10\6-------6—13\10----------10---|
|-------4---4--------8---8----|-------6---6---------11----11------|
|---------3------------8------|---------7--------------10---------|
|-----------------------------|-----------------------------------|
|-----------------------------|-----------------------------------|
|-----------------------------|-----------------------------------|







2:41

|----11\8----------8—14\11----------11--|--15\10----------10—18\15----------15--------|
|---------10----10---------13----13-----|--------11----11----------15----15-----------|
|------------11---------------14--------|-----------12----------------15--------------|
|---------------------------------------|---------------------------------------------|
|---------------------------------------|---------------------------------------------|
|---------------------------------------|---------------------------------------------|

--15\11----------11—18\15----------15--|--18\13----------13—13\10----------10--------|
--------11----11----------16----16-----|--------15----15----------11----11-----------|
-----------12----------------15--------|-----------15----------------10--------------|
---------------------------------------|---------------------------------------------|
---------------------------------------|---------------------------------------------|
---------------------------------------|---------------------------------------------|


2:45

|--12\9----------9—15\12----------12--|--18\14----------14—17\14----------14----------|
|-------11----11---------14----14-----|--------15----15----------15----15-------------|
|----------12---------------15--------|-----------14----------------14----------------|
|-------------------------------------|-----------------------------------------------|
|-------------------------------------|-----------------------------------------------|
|-------------------------------------|-----------------------------------------------|

--18\14----------14—17\14----------14--|--18\14----------14—17\14----------14--------|
--------15----15----------15----15-----|--------15----15----------15----15-----------|
-----------14----------------14--------|-----------14----------------14--------------|
---------------------------------------|---------------------------------------------|
---------------------------------------|---------------------------------------------|
---------------------------------------|---------------------------------------------|


2:48 -
(a segunda frase é tocada em two hands, utilize ligamentos nas frases 4 e 5)

|-----20b-20b---------------15--|-----16\15/16\15\13\11/16\15/16\15\13/15-----------|
|-------------------------------|---------------------------------------------------|
|-------------------------------|---------------------------------------------------|
|-------------------------------|---------------------------------------------------|
|-------------------------------|---------------------------------------------------|
|-------------------------------|---------------------------------------------------|

--16-15-16-15-13-11--------------------|-------------------------------------------|
--------------------16-14-16-14-13-11--|-------------------------------------------|
---------------------------------------|--15-13-15-13-12-10------------------------|
---------------------------------------|--------------------15-13-15-13-11-10------|
---------------------------------------|-------------------------------------------|
---------------------------------------|-------------------------------------------|







2:52 –
(utilize ligamentos nas frases 2,3 e 4, utilize vibrato e ligadura na frase 1)

       vvvvv
|-----------------|---------------------10-13-15-18-15-13--|-------------------|
|-----------------|----------------------------------------|-------------------|
|-----------------|------------10-12-15--------------------|-------------------|
|-----------------|----------------------------------------|-------------------|
|---13v/15v\13v---|---10-13-15-----------------------------|-------------------|
|-----------------|----------------------------------------|-------------------|

----15-13-10-13-10-----------------------|-----------10-13-15-18-15-13-15-13-10--|
-------------------13-15-13-11-13-11-----|---------------------------------------|
-------------------------------------12--|--10-12-15-----------------------------|
-----------------------------------------|---------------------------------------|
-----------------------------------------|---------------------------------------|
-----------------------------------------|---------------------------------------|


2:55 -
(utilize ligamentos na frase 1)
                                                                          vvvv
|--13-10------------------------|----------------|------------------------------13b--|
|--------13-15-13-11-18----13b--|--13b--13b—13b--|--13b\11----11--13-11v-------------|
|-------------------------------|----------------|---------12------------------------|
|-------------------------------|----------------|-----------------------------------|
|-------------------------------|----------------|-----------------------------------|
|-------------------------------|----------------|-----------------------------------|


2:58

   vvvvv
|----------10---|--10/11\10\8----------20b--|--10/11\10\8----------|-------------|
|---------------|-------------11-10--8------|-------------11-10-8--|-------------|
|---------------|---------------------------|----------------------|-------------|
|---------------|---------------------------|----------------------|-------------|
|---------------|---------------------------|----------------------|-------------|
|---------------|---------------------------|----------------------|-------------|

                                                                         vvvvv
--15/17\15\14-----------------------------------|-------------------------------|
---------------16-15-13-------------------------|-------------------------------|
-------------------------15--14-12—12/14\12\11--|-------------------------------|
------------------------------------------------|--13-12-10---------------------|
------------------------------------------------|------------13-12-10--9--------|
------------------------------------------------|-------------------------------|










3:03

                                                                                    They
|-------------------|---------------|--------------------|---------|--------------|-----|
|-------------------|---------------|--------------------|---------|--------------|-----|
|-------------------|---------------|-----------------2--|---------|--------------|-----|
|----5----5----5----|--5------------|-----------------0--|--5------|--------------|-----|
|------5----4----3--|----1----------|-----------2-3-4----|---------|-----------5--|-----|
|-------------------|--------0-1-2--|--3-4-5-6-----------|---------|-----------3--|-----|


3:08

  always         told    me       not       to     play   with      fire
|-------------|---------------|------------------|--------------|------|------|-------|
|-------------|---------------|------------------|--------------|------|------|-------|
|-------------|---------------|------------------|--------------|------|------|-------|
|-------------|---------------|------------------|-------8------|------|------|-------|
|----------3--|---------------|---------------6--|-------6------|---8--|---8--|----5--|
|----------1--|-----1-1-1--1--|--1-1-1—1-1-1--4--|--------------|---6--|---5--|----3--|


3:14

       They       Always              said I   was  a   very        fire            wire
|---------------|--------------------|-------|--------|--------|--------|-------|-------|
|---------------|--------------------|-------|--------|--------|--------|-------|-------|
|---------------|--------------------|-------|--------|--------|--------|-------|-------|
|---------------|-----------------10-|-------|--------|-----8--|--------|----3--|-------|
|---------------|-----------------8--|-------|-----6--|-----6--|-----8--|----0--|---10--|
|------3-3-3-3--|--3-3-3-3-3-3-3-----|-------|-----4--|--------|-----6--|-------|-------|

--------------------------------|
------11------------------------|
------10--------12--------------|
----------------12--------------|
---10-----10-10-----10-10-------|
--------------------------------|


3:22

|-----------------------------|---------------------------|---------------------|-----------|
|-------------------------13--|-----11--------------------|---------------------|-----------|
|---12--13-14-15----------12--|-----10---------12---------|--12--13-14-15---15--|-----------|
|---12--13-14-15--------------|----------------12---------|--12--13-14-15---15--|-----------|
|------------------10-10------|--10-----10-10------10-10--|---------------------|-----------|
|-----------------------------|---------------------------|---------------------|-----------|

-----------------------------------|-------------------------|--------------------------|
----------11-----------------------|---------------------13--|-----11-------------------|
----------10----------12-----------|--12-13-14-15--------12--|-----10--------12---------|
----------------------12-----------|--12-13-14-15------------|---------------12---------|
---10--10------10-10------10-10----|---------------10-10-----|--10-----10-10-----10-10--|
-----------------------------------|-------------------------|--------------------------|


3:27

|-------------------|-----------------|---------------|---------------------|-------|
|-------------------|-----------------|---------------|---------------------|-------|
|-----12-13-14-15---|-----------------|---------------|---------------------|-------|
|-----12-13-14-15---|---5---5---5-----|---5-----------|---------------------|-------|
|-------------------|-----5---4---3---|-----1---------|----------2-3-4-5-6--|-------|
|-------------------|-----------------|-------0-1-2---|--3-4-5-6------------|-------|

----------------------|-----------------------------|
----------------------|-----------------------------|
----------------------|-----------------------------|
----------------------|-----------------------------|
-----------4-5-6-7----|--------------6-7-8-9-10-----|
---5-6-7-8------------|----7-8-9-10-----------------|



                                FIM.

Esta musica é tecnicamente perfeita, para toca-la perfeitamente você devera usar as técnicas
mais ousadas de guitarra como muitos sweeps, saltos, ligamentos ou ligaduras, muitos bends etc.
Possui um grau técnico apuradíssimo e preciso. O grande desafio da musica é o solo, que é
tocado sobre uma velocidade surpreendente. O seu inicio é feito sobre um arpejo de quatro
notas, onde você devera prestar atenção no sentido das plalhetadas. Não tente executar
este trecho com a palhetada de qualquer jeito, pois você não vai conseguir chegar nem
perto do original.

Edu Ardanuy se superando cada vez mais. Vida longa ao melhor guitarrista do Brasil.

Para duvidas, mande email.
|-------U-I-N-------|
|-1-0-0-1-3-6-4-7-9-|

**************************************************************************




                       Fire
                     (Dr. Sin)


I Should Have Know she was the pyru
She really loves to light the fire
She loves to watch it burn
Turns on when the pretty flame destroy
Her little boy.  Melting all his hopes

They always told me not to play with.. Fire
They always said I was a very live.. Wire

I should have know that she would burn me
It's not as if they don't warn me just can't help myself
Helpless like a fragile mounth to flame
She calls my name I'm burning a Trial

They always told me not play with.. Fire
They always said I was a very live.. Wire
Добавлено: 25.06.2012
Другие материалы по этой песне:

Страница создана 22.02.2012
http://primanota.ru/dr-sin/fire-chords.htm
Привет, Гость.
Предлагаем пройти революционный курс по гитаре.
Подарок от PrimaNota.Ru, забирай!